Toxic Holocaust

Acid Fuzz

Toxic Holocaust

tabs

by  PAULANTUNES

save to print version add songbook text version e-mail correct tuner
chordsukulelecavacokeyboardtabbassdrumsharmonicaflute Guitar Pro
close

there isn't a video lesson for this song

chords

Acid Fuzz

	  		

Intro                         3x   For the 4th time end it like this: 

D|-------------------------------------------------------| 
A|-------------------------------------------------------| 
F|-------------------------------------------------------| 
C|--5--7----5--7--8-7---------------5--7--8-7--5---------| 
G|--5--7----5--7--8-7---------------5--7--8-7--5---------| 
D|--3--5----3--5--6-5-000000--------3--5--6-5--3---------| 

Main riff                         4x 

D|--------------------------------------| 
A|--------------------------------------| 
F|--------------------------------------| 
C|-------------88-----------875---------| 
G|--003p0005p0066----003p000653---------| 
D|--------------------------------------| 

"Open up the door.." 

D|-----------| 
A|-----------| 
F|-----------| 
C|--5---3----| 
G|--5---3----| 
D|--3---1----| 

Main riff 2 

D|-------------------------------------| 
A|-------------------------------------| 
F|-------------------------------------| 
C|-------------------------------------| 
G|--003p0003p0000000003p0003p000000----| 
D|-------------------------------------| 

"Lift up the astral veil.." 

D|--------------| 
A|--------------| 
F|--------------| 
C|--5---3-------| 
G|--5---3-------| 
D|--3---1-------| 

"Shattering perception" 

D|--------------------------------------| 
A|--------------------------------------| 
F|--------------------------------------| 
C|--7-7--7-7-7--7--5--7--8-7--5---------| 
G|--7-7--7-7-7--7--5--7--8-7--5---------| 
D|--5-5--5-5-5--5--3--5--6-5--3---------| 

D|---------------------------------------------------------------------|2x 
A|---------------------------------------------------------------------| 
F|--7--5-7-------7h8p7--5-7-------7--5-7---------5-7-7h8p7-5h7p5-------| 
C|--7--5-7-------7h8p7--5-7-------7--5-7-------/7----------------------| 
G|--------0000000----------0000000------0000000------------------------| 
D|---------------------------------------------------------------------| 

"You can't trust your eyes..." 

D|------------------| 
A|------------------| 
F|--5----7----------| 
C|--5----7--5-------| 
G|--3----5--5-------| 
D|----------3-------| 

Main riff 2 

D|------------------------------------------| 
A|------------------------------------------| 
F|------------------------------------------| 
C|------------------------------------------| 
G|--003p0003p0000000003p0003p000000---------| 
D|------------------------------------------| 

"Acid Fuzz consumes..." 

D|--------------| 
A|--------------| 
F|--------------| 
C|--5---3-------| 
G|--5---3-------| 
D|--3---1-------| 

"Shattering perception" 

D|--------------------------------------| 
A|--------------------------------------| 
F|--------------------------------------| 
C|--7-7--7-7-7--7--5--7--8-7--5---------| 
G|--7-7--7-7-7--7--5--7--8-7--5---------| 
D|--5-5--5-5-5--5--3--5--6-5--3---------| 

"Drowning in infinity..." 

D|-----------------------------------------------------------| 
A|-----------------------------------------------------------| 
F|--7-7--7-7-7--7-7-7--7-7-7--7-7-7--7-7-7--7----------------| 
C|--7-7--7-7-7--7-7-7--7-7-7--7-7-7--7-7-7--7----5-3--5-7----| 
G|--5-5--5-5-5--5-5-5--5-5-5--5-5-5--5-5-5--5----5-3--5-7----| 
D|-----------------------------------------------3-1--3-5----| 

Intro 

D|--------------------------3x----------------------------|for the 4th time 
A|--------------------------------------------------------| 
F|--------------------------------------------------------| 
C|--5--7----5--7--8-7---------------5--7--8-7--5----------| 
G|--5--7----5--7--8-7---------------5--7--8-7--5----------| 
D|--3--5----3--5--6-5-000000--------3--5--6-5--3----------| 

Solo 

D|-----------------------------------------------------------| 
A|-----------------------------------------------------------| 
F|--5-5--5-5-5--5-5-5--5-5-5--5-5-5--5-5-5--5-5-5--5---------| 
C|--5-5--5-5-5--5-5-5--5-5-5--5-5-5--5-5-5--5-5-5--5--8--7---| 
G|--3-3--3-3-3--3-3-3--3-3-3--3-3-3--3-3-3--3-3-3--3--8--7---| 
D|----------------------------------------------------6--5---| 

Solo again... 

D|----------------------------------2x--| 
A|--------------------------------------| 
F|--------------------------------------| 
C|-------------88-----------875---------| 
G|--003p0005p0066----003p000653---------| 
D|--------------------------------------| 

Still the solo... 

D|------------------------------------------------------------| 
A|------------------------------------------------------------| 
F|------------------------------------------------------------| 
C|--5-5--5-5-5--5-5-5--5-5-5--5-5-5--6-6-6--7-7-7--8-8--------| 
G|--5-5--5-5-5--5-5-5--5-5-5--5-5-5--6-6-6--7-7-7--8-8--------| 
D|--3-3--3-3-3--3-3-3--3-3-3--3-3-3--4-4-4--5-5-5--6-6--------| 

Solo outro i guess 

D|----------------------------------4x--| 
A|--------------------------------------| 
F|--------------------------------------| 
C|-------------88-----------875---------| 
G|--003p0005p0066----003p000653---------| 
D|--------------------------------------| 

"When a person feels..." 

D|--------------| 
A|--------------| 
F|--------------| 
C|--5---3-------| 
G|--5---3-------| 
D|--3---1-------| 

Main riff 2 

D|------------------------------------------| 
A|------------------------------------------| 
F|------------------------------------------| 
C|------------------------------------------| 
G|--003p0003p0000000003p0003p000000---------| 
D|------------------------------------------| 

"There's no holding back..." 

D|--------------| 
A|--------------| 
F|--------------| 
C|--5---3-------| 
G|--5---3-------| 
D|--3---1-------| 

"You are what I was" 

D|--------------------------------------| 
A|--------------------------------------| 
F|--------------------------------------| 
C|--7-7--7-7-7--7--5--7--8-7--5---------| 
G|--7-7--7-7-7--7--5--7--8-7--5---------| 
D|--5-5--5-5-5--5--3--5--6-5--3---------| 

"Drowning in infinity..." 

D|----------------------------------------------------| 
A|----------------------------------------------------| 
F|--7-7--7-7-7--7-7-7--7-7-7--7-7-7--7-7-7--7---------| 
C|--7-7--7-7-7--7-7-7--7-7-7--7-7-7--7-7-7--7----5-3--| 
G|--5-5--5-5-5--5-5-5--5-5-5--5-5-5--5-5-5--5----5-3--| 
D|-----------------------------------------------3-1--| 

D|---------------------------------------------------------------------|2x 
A|---------------------------------------------------------------------| 
F|--7--5-7-------7h8p7--5-7-------7--5-7---------5-7-7h8p7-5h7p5-------| 
C|--7--5-7-------7h8p7--5-7-------7--5-7-------/7----------------------| 
G|--------0000000----------0000000------0000000------------------------| 
D|---------------------------------------------------------------------| 

"You've made the choice..." 

D|------------------------------------------| 
A|------------------------------------------| 
F|------------------------------------------| 
C|------------------------------------------| 
G|--003p0003p0000000003p0003p000000---------| 
D|------------------------------------------| 

"Dropping Acid Fuzz" 

D|-----------------------------3x------------------wait-for-it--------------| 
A|--------------------------------------------------------------------------| 
F|--------------------------------------------------------------------------| 
C|--5--7----5--7--8-7---------------5--7--8-7--5--------------5--7----------| 
G|--5--7----5--7--8-7---------------5--7--8-7--5--------------5--7----------| 
D|--3--5----3--5--6-5-000000--------3--5--6-5--3--------------3--5----------| 
		  

auto scroll beats size up size down change color hide chords drawings
tab show chords e-chords YouTube Clip e-chords hide all tabs e-chords go to top tab

share