Toto

home > Toto

Jake To The Bone Tab

Toto

Difficulty: ExpertExpert

tuner correct add songbook print version text version save to e-mail
chordsukulelecavacokeyboardtabbassdrumsharmonicsflute Guitar Pro
chords

Jake To The Bone

Year: 2003 - Album: Kingdom Of Desire

	  This is a instrumental song from Toto.

Part A:

    Palm Muted
   +-------------------------------------+            2x
e-------------------------------------------------------
B------------------------------------------12-14-12~----
G-----------12-14-12-----------------------12-14-12~----
D-----12-14----------14----12-14-----12-14--------------
A--14-------------------14--------14--------------------
E-------------------------------------------------------

    Palm Muted
   +-------------------------------------+            2x
e-------------------------------------------------------
B-------------------------------------------9-11--9~----
G------------9-11--9------------------------9-11--9~----
D------9-11----------11-----9-11------9-11--------------
A--11-------------------11--------11--------------------
E-------------------------------------------------------

Part B:

e---------------------------------12-14-14^15-14~-------
B-----------------9-10-12---13-15-----------------------
G--11(13)11~--/11---------------------------------------
D-------------------------------------------------------
A-------------------------------------------------------
E-------------------------------------------------------

Part C: (the 7/8 part)

e----------------------------|---------------------------|
B----------------------------|---------------------------|
G----------------------------|---------------------------|
D----------------------------|---------------------------|
A-----7---5-----4^2^0^2~-----|-----7---5-----4^2^0-2^0---|
E-0-----------0--------------|-0-----------0-----------3-|

	  

there isn't a video lesson for this song

request
Search
auto scroll beats size up size down change color hide chords drawings
tab show chords e-chords YouTube Clip e-chords hide all tabs e-chords go to top tab