Torres

Moon And Back

Torres

tabs

by  SABRJOAO

save to print version add songbook text version e-mail correct tuner
chordsukulelecavacokeyboardtabbassdrumsharmonicaflute Guitar Pro
close

there isn't a video lesson for this song

chords

Moon And Back

	  		

Tuning: Standard 

Intro: 
e|--------------------------------------------------------------------------| 
B|--1p0-------------1------------1--------------3------------1--------------| 
G|--2p0--0-------0-----0------0h2-----0------0-----0------0h2---0-----------| 
D|-------------------------2--------------------------3---------------------| 
A|-----------3--------------------------------------------------------------| 
E|----------------------------------------3---------------------------------| 

e|--------------------------------------------------------------------------| 
B|------------1-------------1-----------3-----------3-----------------------| 
G|---------0-----0-----0h2-----0-----0-----0-----0-----0--------------------| 
D|------------------2-------------------------------------------------------| 
A|------3-------------------------------------------------------------------| 
E|--------------------------------3-----------3-----------------------------| 

Verse:       Little baby,         if you're  reading this 
e|---------------------------------------------------------------------------| 
B|------------1-----------1-----------1------------3-------------------------| 
G|---------0h2---0-----0-----0-----0h2---0------0------0---------------------| 
D|------3-----------------------2--------------------------------------------| 
A|------------------3--------------------------------------------------------| 
E|-------------------------------------------3-------------------------------| 

          you're probably all grown, the way most babies do 
e|---------------------------------------------------------------------------| 
B|------------1-----------1-----------1------------3-------------------------| 
G|---------0h2---0-----0-----0-----0h2---0------0-----0----------------------| 
D|------3-----------------------2--------------------------------------------| 
A|------------------3--------------------------------------------------------| 
E|-------------------------------------------3-------------------------------| 

       I'm sure your   eyes are still their pretty blue  
e|---------------------------------------------------------------------------| 
B|------------1-----------1-----------1------------3-------------------------| 
G|---------0h2---0-----0-----0-----0h2---0------0-----0----------------------| 
D|------3-----------------------2--------------------------------------------| 
A|------------------3--------------------------------------------------------| 
E|-------------------------------------------3-------------------------------| 

          Doo   Dum    Doo  Dum   Da Da Da   Da Da 
e|---------------------------------------------------------------------------| 
B|------------1-----------1-----------1------------3------------3------------| 
G|---------0h2---0-----0-----0-----0h2---0------0-----0------0-----0---------| 
D|------3-----------------------2--------------------------------------------| 
A|------------------3--------------------------------------------------------| 
E|-------------------------------------------3------------3------------------| 

 (+strings) I'm writing     to you            from 1991,  
e|---------------------------------------------------------------------------| 
B|------------1-----------1-----------1------------3-------------------------| 
G|---------0h2---0-----0-----0-----0h2---0------0-----0----------------------| 
D|------3-----------------------2--------------------------------------------| 
A|------------------3--------------------------------------------------------| 
E|-------------------------------------------3-------------------------------| 

      the year I gave you to a Mama   with a girl and son  
e|---------------------------------------------------------------------------| 
B|------------1-----------1-----------1------------3-------------------------| 
G|---------0h2---0-----0-----0-----0h2---0------0-----0----------------------| 
D|------3-----------------------2--------------------------------------------| 
A|------------------3--------------------------------------------------------| 
E|-------------------------------------------3-------------------------------| 

           Doo Dum      Da Da Da Dum       Da Da 
e|---------------------------------------------------------------------------| 
B|------------1-----------1-----------1------------3-------------------------| 
G|---------0h2---0-----0-----0-----0h2---0------0-----0----------------------| 
D|------3-----------------------2--------------------------------------------| 
A|------------------3--------------------------------------------------------| 
E|-------------------------------------------3-------------------------------| 

          Doo   Dum    Doo  Dum   Da Da Da   Da Da 
e|---------------------------------------------------------------------------| 
B|------------1-----------1-----------1------------3------------3------------| 
G|---------0h2---0-----0-----0-----0h2---0------0-----0------0-----0---------| 
D|------3-----------------------2--------------------------------------------| 
A|------------------3--------------------------------------------------------| 
E|-------------------------------------------3------------3------------------| 

             Please Don't look at this like a hit and run 
e|-----------1---------------------------------------------------------------| 
B|-----------3---------------1-------1-1-1----------0------------------------| 
G|--------2------------------2-------0-0-0----------0------------------------| 
D|-----0---------------------2-------2-2-2-------0---------------------------| 
A|------------------------0-------3------------------------------------------| 
E|--------------------------------------------3------------------------------| 

             In a breath I felt you leaving like the setting sun 
e|-----------1---------------------------------------------------------------| 
B|-----------3---------------1-------1-1-1----------0------------------------| 
G|--------2------------------2-------0-0-0----------0------------------------| 
D|-----0---------------------2-------2-2-2-------0---------------------------| 
A|------------------------0-------3------------------------------------------| 
E|--------------------------------------------3------------------------------| 

             Life just thought that I should draw the shortest straw 
e|-----------1---------------------------------------------------------------| 
B|-----------3---------------1-------1-1-1----------0------------------------| 
G|--------2------------------2-------0-0-0----------0------------------------| 
D|-----0---------------------2-------2-2-2-------0---------------------------| 
A|------------------------0-------3------------------------------------------| 
E|--------------------------------------------3------------------------------| 

             Little baby for a short time I had you to break my 
e|-----------1---------------------------------------------------------------| 
B|-----------3---------------1---------1------------0------------------------| 
G|--------2------------------2---------0------------0------------------------| 
D|-----0---------------------2-------2---2-------0---------------------------| 
A|------------------------0-------3------------------------------------------| 
E|--------------------------------------------3------------------------------| 

         Fall          Fall              Fall 
e|---------------------------------------------------------------------------| 
B|------------1-----------1-----------1------------3-------------------------| 
G|---------0h2---0-----0-----0-----0h2---0------0------0---------------------| 
D|------3-----------------------2--------------------------------------------| 
A|------------------3--------------------------------------------------------| 
E|-------------------------------------------3-------------------------------| 

         Du Dum          Du Dum                Du dum 
e|---------------------------------------------------------------------------| 
B|------------1-----------1-----------1------------3-------------3-----------| 
G|---------0h2---0-----0-----0-----0h2---0------0-----0-------0-----0--------| 
D|------3-----------------------2--------------------------------------------| 
A|------------------3--------------------------------------------------------| 
E|-------------------------------------------3-------------3-----------------| 

               Your new daddy, yeah he loves you too  
e|---------------------------------------------------------------------------| 
B|------------1-----------1-----------1------------3-------------------------| 
G|---------0h2---0-----0-----0-----0h2---0------0-----0----------------------| 
D|------3-----------------------2--------------------------------------------| 
A|------------------3--------------------------------------------------------| 
E|-------------------------------------------3-------------------------------| 

               "To the moon and back," he said 
e|---------------------------------------------------------------------------| 
B|------------1-----------1-----------1------------3-------------------------| 
G|---------0h2---0-----0-----0-----0h2---0------0-----0----------------------| 
D|------3-----------------------2--------------------------------------------| 
A|------------------3--------------------------------------------------------| 
E|-------------------------------------------3-------------------------------| 

               When I laid you in his arms  
e|---------------------------------------------------------------------------| 
B|------------1-----------1-----------1------------3-------------------------| 
G|---------0h2---0-----0-----0-----0h2---0------0-----0----------------------| 
D|------3-----------------------2--------------------------------------------| 
A|------------------3--------------------------------------------------------| 
E|-------------------------------------------3-------------------------------| 

           And he kissed your soft blond hair 
e|---------------------------------------------------------------------------| 
B|------------1-----------1-----------1------------3------------3------------| 
G|---------0h2---0-----0-----0-----0h2---0------0-----0------0-----0---------| 
D|------3-----------------------2--------------------------------------------| 
A|------------------3--------------------------------------------------------| 
E|-------------------------------------------3------------3------------------| 

             Please Don't look at this like a hit and run 
e|-----------1---------------------------------------------------------------| 
B|-----------3---------------1-------1-1-1----------0------------------------| 
G|--------2------------------2-------0-0-0----------0------------------------| 
D|-----0---------------------2-------2-2-2-------0---------------------------| 
A|------------------------0-------3------------------------------------------| 
E|--------------------------------------------3------------------------------| 

             In a breath I felt you leaving like the setting sun 
e|-----------1---------------------------------------------------------------| 
B|-----------3---------------1-------1-1-1----------0------------------------| 
G|--------2------------------2-------0-0-0----------0------------------------| 
D|-----0---------------------2-------2-2-2-------0---------------------------| 
A|------------------------0-------3------------------------------------------| 
E|--------------------------------------------3------------------------------| 

             Life just thought that I should draw the shortest straw 
e|-----------1---------------------------------------------------------------| 
B|-----------3---------------1-------1-1-1----------0------------------------| 
G|--------2------------------2-------0-0-0----------0------------------------| 
D|-----0---------------------2-------2-2-2-------0---------------------------| 
A|------------------------0-------3------------------------------------------| 
E|--------------------------------------------3------------------------------| 

             Little baby for a short time I had you to break my 
e|-----------1---------------------------------------------------------------| 
B|-----------3---------------1---------1------------0------------------------| 
G|--------2------------------2---------0------------0------------------------| 
D|-----0---------------------2-------2---2-------0---------------------------| 
A|------------------------0-------3------------------------------------------| 
E|--------------------------------------------3------------------------------| 

         Fall          Fall              Fall 
e|---------------------------------------------------------------------------| 
B|------------1-----------1-----------1------------3-------------------------| 
G|---------0h2---0-----0-----0-----0h2---0------0------0---------------------| 
D|------3-----------------------2--------------------------------------------| 
A|------------------3--------------------------------------------------------| 
E|-------------------------------------------3-------------------------------| 

         Du Dum          Du Dum                Du dum 
e|---------------------------------------------------------------------------| 
B|------------1-----------1-----------1------------3------------3------------| 
G|---------0h2---0-----0-----0-----0h2---0------0-----0------0-----0---------| 
D|------3-----------------------2--------------------------------------------| 
A|------------------3--------------------------------------------------------| 
E|-------------------------------------------3------------3------------------| 

        Your new     family      must 
e|---------------------------------------------------------------------------| 
B|------------1-----------3-----------1-----------1--------------------------| 
G|---------2-----2-----0-----0-----2-----2-----2-----2-----------------------| 
D|------3-----------------------2-----------2--------------------------------| 
A|---------------------------------------------------------------------------| 
E|------------------3--------------------------------------------------------| 

      I did this    all for       you 
e|---------------------------------------------------------------------------| 
B|------------1-----------3-----------1-----------1--------------------------| 
G|---------2-----2-----0-----0-----2-----2-----2-----2-----------------------| 
D|------3-----------------------2-----------2--------------------------------| 
A|---------------------------------------------------------------------------| 
E|------------------3--------------------------------------------------------| 


       Maybe one day            you'll believe it 
e|---------------------------------------------------------------------------| 
B|------------1-----------1-----------3-----------3--------------------------| 
G|---------2-----2-----2-----2-----0-----0-----0-----0-----------------------| 
D|------3-----------3--------------------------------------------------------| 
A|---------------------------------------------------------------------------| 
E|------------------------------3-----------3--------------------------------| 

        Too            Du Dum                Du dum 
e|---------------------------------------------------------------------------| 
B|------------1-----------1-----------1------------3-------------------------| 
G|---------0h2---0-----0-----0-----0h2---0------0-----0----------------------| 
D|------3-----------------------2--------------------------------------------| 
A|------------------3--------------------------------------------------------| 
E|-------------------------------------------3-------------------------------| 

         Du Dum          Du Dum                Du dum 
e|---------------------------------------------------------------------------| 
B|------------1-----------1-----------1------------3-------------------------| 
G|---------0h2---0-----0-----0-----0h2---0------0-----0----------------------| 
D|------3-----------------------2--------------------------------------------| 
A|------------------3--------------------------------------------------------| 
E|-------------------------------------------3-------------------------------| 

         Du Dum          Du Dum                Du dum 
e|---------------------------------------------------------------------------| 
B|------------1-----------1-----------1------------3-------------------------| 
G|---------0h2---0-----0-----0-----0h2---0------0-----0----------------------| 
D|------3-----------------------2--------------------------------------------| 
A|------------------3--------------------------------------------------------| 
E|-------------------------------------------3-------------------------------| 

         Du Dum          Du Dum                Du dum 
e|---------------------------------------------------------------------------| 
B|------------1-----------1-----------1------------3------------3------------| 
G|---------0h2---0-----0-----0-----0h2---0------0-----0------0-----0---------| 
D|------3-----------------------2--------------------------------------------| 
A|------------------3--------------------------------------------------------| 
E|-------------------------------------------3------------3------------------| 

             Please don't look at this like a hit and run 
e|-----------1---------------------------------------------------------------| 
B|-----------3-----------------------1-1-1----------0------------------------| 
G|-----------2-----------------------0-0-0----------0------------------------| 
D|-----------0-----------------------2-2-2-------0---------------------------| 
A|-----------------------------------3-3-3-----------------------------------| 
E|--------------------------------------------3------------------------------| 

             In a breath I felt you leaving like the setting sun 
e|-----------1---------------------------------------------------------------| 
B|-----------3---------------1-------1-1-1----------0------------------------| 
G|--------2------------------2-------0-0-0----------0------------------------| 
D|-----0---------------------2-------2-2-2-------0---------------------------| 
A|------------------------0-------3------------------------------------------| 
E|--------------------------------------------3------------------------------| 

             Life just thought that I should draw the shortest straw 
e|-----------1---------------------------------------------------------------| 
B|-----------3---------------1-------1-1-1----------0------------------------| 
G|--------2------------------2-------0-0-0----------0------------------------| 
D|-----0---------------------2-------2-2-2-------0---------------------------| 
A|------------------------0-------3------------------------------------------| 
E|--------------------------------------------3------------------------------| 

             Little baby for a short time I had you to break my 
e|-----------1---------------------------------------------------------------| 
B|-----------3---------------1---------1------------0------------------------| 
G|--------2------------------2---------0------------0------------------------| 
D|-----0---------------------2-------2---2-------0---------------------------| 
A|------------------------0-------3------------------------------------------| 
E|--------------------------------------------3------------------------------| 

             Please don't look at this like a hit and run 
e|-----------1---------------------------------------------------------------| 
B|-----------3---------------1-------1-1-1----------0------------------------| 
G|--------2------------------2-------0-0-0----------0------------------------| 
D|-----0---------------------2-------2-2-2-------0---------------------------| 
A|------------------------0-------3------------------------------------------| 
E|--------------------------------------------3------------------------------| 

             In a breath I felt you leaving like the setting sun 
e|-----------1---------------------------------------------------------------| 
B|-----------3---------------1-------1-1-1----------0------------------------| 
G|--------2------------------2-------0-0-0----------0------------------------| 
D|-----0---------------------2-------2-2-2-------0---------------------------| 
A|------------------------0-------3------------------------------------------| 
E|--------------------------------------------3------------------------------| 

             Life just thought that I should draw the shortest straw 
e|-----------1---------------------------------------------------------------| 
B|-----------3---------------1-------1-1-1----------0------------------------| 
G|--------2------------------2-------0-0-0----------0------------------------| 
D|-----0---------------------2-------2-2-2-------0---------------------------| 
A|------------------------0-------3------------------------------------------| 
E|--------------------------------------------3------------------------------| 

             Little baby for a short time I had you to break my 
e|-----------1---------------------------------------------------------------| 
B|-----------3---------------1---------1------------0------------------------| 
G|--------2------------------2---------0------------0------------------------| 
D|-----0---------------------2-------2---2-------0---------------------------| 
A|------------------------0-------3------------------------------------------| 
E|--------------------------------------------3------------------------------| 

e|---------------------------------------------------------------------------| 
B|-------------1----1---1-1-1-1-1-0-0----------------------------------------| 
G|-------------2----2---0-0-0-0-0-0-0----------------------------------------| 
D|-------------2----2---2-2-2-2-2-0-0----------------------------------------| 
A|-------------0----0---3-3-3-3-3-2-2----------------------------------------| 
E|--------------------------------3-3----------------------------------------| 


************************************ 

| /   slide up 
| \   slide down 
| h   hammer-on 
| p   pull-off 
| ~   vibrato 
| +   harmonic 
| x   Mute note 
| b   Bend 
| pb  Pre-bend 
| br  Bend release 
| pbr Pre-bend release 
| brb Bend release bend 

************************************ 
		  

See also:

tabs Deep Purple - Burn tabs Deep Purple - Lazy tabs Deep Purple - Deep Purple - Smoke On The Water tabs Deep Purple - Stormbringer tabs Deep Purple - Demon's Eye tabs Albert Hammond Jr - Holiday
e-chords

Other versions:

tabs Torres - Moon And Back
auto scroll beats size up size down change color hide chords drawings
tab show chords e-chords YouTube Clip e-chords hide all tabs e-chords go to top tab

share