Tool

home > Tool

No Quarter Tab

Tool

Difficulty: BeginnerBeginner

tuner correct add songbook print version text version save to e-mail
chordsukulelecavacokeyboardtabbassdrumsharmonicsflute Guitar Pro
chords

No Quarter

  		Transcribed by: Chino 
Email: [email protected] 
 
This is an amazing song....Probably the best cover I've hear 
in a long long long time...What a surprise,Tool doing a kick  
ass cover....Anyway, the songs in Drop D, and I'm 
pretty sure this is very close to correct...There's a few little fills  
I couldnt hear but the majority of the songs is there....Enjoy and peace... 
 
---------------------|-----------------------|------------------|------------- 
-10-9-7-9-5----------|-10-9-7-9-5--------5---|-10-9-7-9-5-------|-10-9-7-9-5-- 
-------------5-5/7---|-------------5-5/7---7-|------------5-5/7-|------------- 
---------------------|-----------------------|------------------|------------- 
---------------------|-----------------------|------------------|------------- 
---------------------|-----------------------|------------------|------------- 
 Part A                                                                        
 
--------------|---------------------------------------|----------------------- 
--------------|---------------------------------------|----------------------- 
---5------7---|----5-5-5--7-7--7-9-----10-9-7-9-5---5-|-5-5-5-7-------5---4--- 
-5---5--7---7-|-7---------------------------------7---|---------5-7-----5----- 
--------------|---------------------------------------|----------------------- 
--------------|---------------------------------------|----------------------- 
                                                                               
 
------|---------------------------------|-------------|----------------------- 
------|---------------------------------|-------------|----------------------- 
---7--|-----5-5-5-7-9---10-9-7-9-5---5--|-5-5-5-7-----|-----5-5-5-9---9---9--- 
-5----|--7-------------------------7----|---------5-7-|-7-7-----------8---8--- 
------|---------------------------------|-------------|---------------7---7--- 
------|---------------------------------|-------------|---------------7------- 
                                                                               
 
----------------------------------------------------------------------|------- 
-------------------------------10-10--10-----10------10-10-10--13-----|------- 
-9-----9-----9-9-9-10-10/12----8--8------8------8-----------------12--|------- 
---8-----8---------------------7--7--------7------7-------------------|-5-/7-- 
-----7-----7----------------------------------------------------------|-3/-5-- 
----------------------------------------------------------------------|------- 
                                                                      Part B   
 
-------------------------------------------------------------|---------------- 
-------------------------------------------------------------|---------------- 
-------------------------------------------------------------|---------------- 
-7-7-7--5-/-7-7-7--5-/7-7---------------------------3--------|--0------10-9--- 
-5-5-5--3/--5-5-5--3/-5-5--3h-5--5-5-5-3--3--3---3----5-5-5--|--0------------- 
---------------------------3h-5--5-5-5-3--3--3--7-7----------|--0------------- 
 Repeat 4x                                                                     
 
-------------|------------------|---------------|------------------------|---- 
-------------|------------------|---------------|------------------------|---- 
-------------|------------------|---------------|------------------------|---- 
-7-9-5-------|-10-9-7-9-5-------|10-9-7-9-5-----|10-9-7-9-5----5-----7---|---- 
-------5-5/7-|------------5-5/7-|-----------5-7-|------------5---5-7---7-|-7-- 
-------------|------------------|---------------|------------------------|---- 
                                                                               
 
--------------------------------|-----------------------------|--------------- 
--------------------------------|-----------------------------|--------------- 
--------------------------------|-----------------------------|--------------- 
-5-5-7-7-9--10-9-7-9---5-----7--|--5-5-5-7---------5---4---7--|---5-5--7-7-9-- 
---------------------5---5-7---7|----------5-5/7-----5---5----|-7------------- 
--------------------------------|-----------------------------|--------------- 
                                                                               
 
--------------------|---------------------------------------|----------------- 
--------------------|---------------------------------------|----------------- 
--------------------|---------------------------------------|----------------- 
--10-9-7-9-5---5----|-5-5-5-7-------------------------------|---5-5-7-7-9----- 
-------------5---5--|---------5-7---------------------------|-7--------------- 
--------------------|---------------------------------------|----------------- 
                                  some odd fill i cant hear                    
 
------------------------------------------------------------------------|----- 
-------------------------------------10-10--10-----10------10-10-13-----|----- 
-9---9--9-----9-----9-9-9-10-10-12---8---8-----8------8-------------12--|----- 
-8---8----8-----8--------------------7---7-------7------7---------------|----- 
-7---7------7-----7-----------------------------------------------------|----- 
-7---7------------------------------------------------------------------|----- 
                                                                               
 
--------------------|------------------------------------|-------------------- 
--------------------|------------------------------------|-------------------- 
--------------------|------------------------------------|-------------------- 
--------------------|--5-/7--7----7---7------------------|--3h5-5-5-5-5-5h6--- 
--------------------|--3/-5--5--5-5-5-5---3-/-5--5-5--8--|-------------------- 
--------------------|---------------------3/--5--5-5--8--|-------------------- 
 Repeat part B then   Clean slightly phlanged 10x alone    Under last Riff a   
 
-------------------------|---------------------------------------------------- 
-------------------------|---------------------------------------------------- 
-------------------------|---------------------------------------------------- 
-5--/10-12-12-8-8h10-8-6-|--3-----3---5-3--5-3--5-3---5-3--5-3--5-3--5-3--5--- 
-------------------------|----7-3---7----7----7-----7----7----7----7----7----- 
-------------------------|---------------------------------------------------- 
 few times with acoustic    Solo                                               
 
------------------------------------------------------------------------------ 
------------------------------------------------------------------------------ 
--------------------5-7---------5---------5----------5----3/5-3-5-3-2-3-2-3--- 
-3--------------5-7---------5-7-------5-7--------5-7-------------------------- 
--7-3/5-3---3-5---------3-5-------3-5--------3-5------------------------------ 
------------------------------------------------------------------------------ 
                                                                               
 
---|-------------------------------------------------------------------------- 
---|-------------------------------------------------------------------------- 
-2-|-------------------------------------------------------------------------- 
---|-------------------------------------------------------------------------- 
---|-------------------------------------------------------------------------- 
---|-------------------------------------------------------------------------- 
     Just play the clean/phlanged riff above until the"gettin colder"part      
 
-----------------------------|-----------------------------|------------------ 
-----------------------------|-----------------------------|-16-16/19/18/14/-- 
-----------------------------|------10-9---5---2-5-7-7-10--|-15-15/18/17/13/-- 
-----------------------------|-7-7--10-9---5---2-5-7-7-10--|------------------ 
-----------------------------|-5-5--8--7---3---0-3-5-5-8---|------------------ 
-----------------------------|-0-0-------0---0-------------|------------------ 
 where it comes in distorted   "goooooess"                                     
 
--------------------|-----------------------|---------------------------|----- 
-11/11/14/16/19/16--|-----------------------|---------------------------|-6-6- 
-10/10/13/15/18/15--|-----------------------|---------------------------|-5-5- 
--------------------|-7--7--7-7--7--7--7-7--|----^----^-------^-----^---|----- 
--------------------|-5--5--5-5--5--5--5-5--|----5----5-------5-----5---|----- 
--------------------|-0--0--0-0--0--0--0-0--|-0----0------0------0------|----- 
                     Pm -----------------                                Do    
 
---------------------------------------------------|-------------------------- 
--8-8---10-10--11-11------10----6-6-6--6--8--------|--6-6---8-8---10---------- 
--7-7---9--9---10-10--11b-------5-5-5--5--7--5/-7--|--5-5---7-7---9----9------ 
---------------------------------------------5/-7--|-------------------8------ 
---------------------------------------------------|-------------------7------ 
---------------------------------------------------|-------------------------- 
 this 2x                                                                       
 
--------------------------------------------------------------------------|--- 
---------------------------------10---10--10------10------10-10-10--13----|--- 
-9--9------9------9-9-10-10-12----8---8------8-------8-----------------12-|--- 
-8----8------8--------------------7---7--------7-------7------------------|--- 
-7------7------7----------------------------------------------------------|--- 
--------------------------------------------------------------------------|--- 
                                                                               
 
--------------------|--------------------------------------------------------- 
--------------------|--------------------------------------------------------- 
--------------------|--------------------------------------------------------- 
--------------------|----------------3-----------------------3---------------- 
--------------------|--5b--0-----3-----5-------------0--3------5-------------- 
--------------------|--5b--0---0---7-----7--5b--5----0----7-------7--5b--5---- 
 Chorus Riff then...                                                           
 
---------------------------|----------------------------------------------|--- 
---------------------------|----------------------------------------------|--- 
---------------------------|----------------------------------------------|--- 
-----------------3---------|---3p0-----3p0----3p0-----3p0-----3p0-----3p0-|--- 
-0--------3--------5--5-5--|-5-----3p0------5-----3p0------5------3p0-----|--- 
-0----5-7---5-7------------|----------------------------------------------|--- 
 

	  

Search Paypal
auto scroll beats size up size down change color hide chords drawings
tab show chords e-chords YouTube Clip e-chords hide all tabs e-chords go to top tab