Tonight Alive

Sure As Hell

Tonight Alive

tabs

by  ANDRSOUZA

save to print version add songbook text version e-mail correct tuner
chordsukulelecavacokeyboardtabbassdrumsharmonicaflute Guitar Pro
close

there isn't a video lesson for this song

chords

Sure As Hell

	  		Intro 

e|---------------------------------------------------------------------------| 
B|---------------------------------------------------------------------------| 
G|---------------------------------------------------------------------------| 
D|---5-5-5-5-555-7-7-7-7-777-4-4-4-4-444-5-5-5-5-555-------------------------|   X2 
A|---5-5-5-5-555-7-7-7-7-777-4-4-4-4-444-5-5-5-5-555-------------------------| 
E|---5-5-5-5-555-7-7-7-7-777-4-4-4-4-444-5-5-5-5-555-------------------------| 

verse 1 the bit in  is the very end part before the Chorus 
e|---------------------------------------------------------------------------| 
B|---------------------------------------------------------------------------| 
G|---------------------------------------------------------------------------| 
D|--5-5-5----7-7-7----4-4-4----5-5-5-----------5-5-7-----------------------|  X4 
A|--5-5-5----7-7-7----4-4-4----5-5-5-----------5-5-7-----------------------| 
E|--5-5-5----7-7-7----4-4-4----5-5-5-----------5-5-7-----------------------| 


Chorus 
e|---------------------------------------------------------------------------| 
B|---------------------------------------------------------------------------| 
G|---------------------------------------------------------------------------| 
D|--99999999-55555555-00000000-77777777--------------------------------------| X2 
A|--99999999-55555555-00000000-77777777--------------------------------------| 
E|--99999999-55555555-00000000-77777777--------------------------------------| 

e|---------------------------------------------------------------------------| 
B|---------------------------------------------------------------------------| 
G|---------------------------------------------------------------------------| 
D|--55555555-77--7-----------------------------------------------------------| 
A|--55555555-77--7-----------------------------------------------------------| 
E|--55555555-77--7-----------------------------------------------------------| 

verse 2 you play nothing until the refrain 
e|---------------------------------------------------------------------------| 
B|---------------------------------------------------------------------------| 
G|---------------------------------------------------------------------------| 
D|--55555555-77777777-44444444-55555555--------5555555555-7----------------|  X2 
A|--55555555-77777777-44444444-55555555--------5555555555-7----------------| 
E|--55555555-77777777-44444444-55555555--------5555555555-7----------------| 
PM............................................................ 


Chorus 
e|---------------------------------------------------------------------------| 
B|---------------------------------------------------------------------------| 
G|---------------------------------------------------------------------------| 
D|--99999999-55555555-00000000-77777777--------------------------------------| X2 
A|--99999999-55555555-00000000-77777777--------------------------------------| 
E|--99999999-55555555-00000000-77777777--------------------------------------| 

e|---------------------------------------------------------------------------| 
B|---------------------------------------------------------------------------| 
G|---------------------------------------------------------------------------| 
D|--55555555-77--7-----------------------------------------------------------| 
A|--55555555-77--7-----------------------------------------------------------| 
E|--55555555-77--7-----------------------------------------------------------| 

break 

e|---------------------------------------------------------------------------| 
B|---------------------------------------------------------------------------| 
G|---------------------------------------------------------------------------| 
D|-0~~~----------------------------------------------------------------------| 
A|-0~~~----------------------------------------------------------------------| 
E|-0~~~----------------------------------------------------------------------| 

Bridge 

e|---------------------------------------------------------------------------| 
B|---------------------------------------------------------------------------| 
G|---------------------------------------------------------------------------| 
D|---------------------------------------------------------------------------| X2 
A|--55555555-77777777-44444444-55555555-------55555555-7-------------------| 
E|--55555555-77777777-44444444-55555555-------55555555-7-------------------| 
PM......................................................... 

outro/Chorus (when playing this part a seoncd time you forget the 5 and start 
the ryhtmn of the intro it makes sense when you hear the song) 
e|---------------------------------------------------------------------------| 
B|---------------------------------------------------------------------------| 
G|---------------------------------------------------------------------------| 
D|--00000000-77777777-99999999-55555555--------------------------------------| X2 
A|--00000000-77777777-99999999-55555555--------------------------------------| 
E|--00000000-77777777-99999999-55555555--------------------------------------| 

e|--------------------------------------------------------------------------------| 
B|--------------------------------------------------------------------------------| 
G|--------------------------------------------------------------------------------| 
D|---5-5-5-5-555-7-7-7-7-777------------------------------------------------------|   X2 
A|---5-5-5-5-555-7-7-7-7-777------------------------------------------------------| 
E|---5-5-5-5-555-7-7-7-7-777------------------------------------------------------| 

e|---------------------------------------------------------------------------| 
B|---------------------------------------------------------------------------| 
G|---------------------------------------------------------------------------| 
D|--555555555--77-7----------------------------------------------------------| 
A|--555555555--77-7----------------------------------------------------------| 
E|--555555555--77-7----------------------------------------------------------| 


************************************ 

| /   slide up 
| \   slide down 
| h   hammer-on 
| p   pull-off 
| ~   vibrato 
| +   harmonic 
| x   Mute note 
| b   Bend 
| pb  Pre-bend 
| br  Bend release 
| pbr Pre-bend release 
| brb Bend release bend 

************************************ 
		  

See also:

tabs Silverchair - Shade tabs Tame Impala - Alter Ego tabs Tame Impala - Island Walking tabs Tonight Alive - Lonely Girl tabs Silverchair - The Door tabs The Rubens - I'll Surely Die
e-chords

Other versions:

tabs Tonight Alive - Sure As Hell
auto scroll beats size up size down change color hide chords drawings
tab show chords e-chords YouTube Clip e-chords hide all tabs e-chords go to top tab

share