Tokio Hotel

Wo Sind Eure Hnde

Tokio Hotel

tabs Expert expert

by  ROBE_MEDEIROS

save to print version add songbook text version e-mail correct tuner
chordsukulelecavacokeyboardtabbassdrumsharmonicaflute Guitar Pro
close

there isn't a video lesson for this song

chords

Wo Sind Eure Hnde

	  		Afinação: E A D G B e 

Inrodução 

e|--------------------------------------------------------| 
B|--------------------------------------------------------| 
G|--------------------------------------------------------| 
D|--7-7-7-10-10-10-3-3-3-7-7---7-7-7-10-10-10-3-3-7--5----|  (2X) 
A|--7-7-7-10-10-10-3-3-3-7-7---7-7-7-10-10-10-3-3-7--5----| 
E|--5-5-5?-8-?8--8-1-1-1-5-5---5-5-5--8?-8--8-1-1-5--3----| 

Verso  

e|----------------------------------------------------------| 
B|----------------------------------------------------------| 
G|----------------------------------------------------------| 
D|--7-7-7-10-10-10-3-3-3-7-7-7---7-7-7-10-10-10-3-3-7--5----|  (3X) 
A|--7-7-7-10-10-10-3-3-3-7-7-7---7-7-7-10-10-10-3-3-7--5----| 
E|--5-5-5--8--8--8-1-1-1-5-5-5---5-5-5--8--8--8-1-1-5--3----| 
							 
e|----------------------------------------------| 
B|----------------------------------------------| 
G|----------------------------------------------| 
D|--7-7-7-10-10-10-3-3-3-7-7-7---7-7-7-10-10-10-| 
A|--7-7-7-10-10-10-3-3-3-7-7-7---7-7-7-10-10-10-| 
E|--5-5-5--8--8--8-1-1-1-5-5-5---5-5-5--8--8--8-| 
							 
e|-------------------------------------------| 
B|-------------------------------------------| 
G|-------------------------------------------| 
D|--3-3-3-3-3-3-3-3/10-10-10-10-10-10-10-10--| 
A|--3-3-3-3-3-3-3-3/-8--8--8--8--8--8--8--8--| 
E|--1-1-1-1-1-1-1-1--------------------------| 

Pré-Refrão  

e|---------------------------------------| 
B|---------------------------------------| 
G|--7-7-7-7-9-9-9-9----------------------| 
D|--7-7-7-7-9-9-9-9-10-10-10-10-7-7-7-7--| 
A|--5-5-5-5-7-7-7-7-10-10-10-10-7-7-7-7--| 
E|-------------------8--8--8--8-5-5-5-5--| 

e|--------------------------------------------------------------| 
B|--------------------------------------------------------------| 
G|--7-7-7-7-9-9-9-9---------------------------------------------| 
D|--7-7-7-7-9-9-9-9-10-10-10-10-10/17-17-17-17-17-17-XXXXXXXXXX-| 
A|--5-5-5-5-7-7-7-7-10-10-10-10-10/15-15-15-15-15-15-XXXXXXXXXX-| 
E|-------------------8--8--8--8?-8-------------------XXXXXXXXXX-| 

Refrão  

e|--------------------------------------------| 
B|--------------------------------------------| 
G|--(9)-------(12)-------(9)-------(5)--------| 
D|--(9)-------(12)-------(9)-------(5)--------| 
A|--(7)-------(10)-------(7)-------(3)--------| 
E|--------------------------------------------| 

Ponte 

e|-----------------------------------------| 
B|-----------------------------------------| 
G|-----------------------------------------| 
D|--9-9-9-9-5-5-5-5------------------7-7---| 
A|--7-7-7-7-3-3-3-3-5-5-5-5-7-7-7-7--7-7---| 
E|------------------3-3-3-3-5-5-5-5--5-5---| 
    . . . . . . . . . . . . . . . .  

e|-----------------------------------------| 
B|-----------------------------------------| 
G|--9-9-9-9-5-5-5-5------------------------| 
D|--9-9-9-9-5-5-5-5-5-5-5-5-7-7-7-7--7-7---| 
A|--7-7-7-7-3-3-3-3-5-5-5-5-7-7-7-7--7-7---| 
E|------------------3-3-3-3-5-5-5-5--5-5---| 

. palm mute 
( )tocado várias vezes 
X abafado 
/ slide para baixo 
\slide para cima   

 Letra 

 ich hör alles ist so wichtig 
 schon klar die anderen machens auch 
 ja ja ganz genau ist richtig 
 glaub ruhig dass ich euch das glaub 
 zurück und dann wieder nach vorn 
 ok wird schon richtig sein 
 bleib stehn weil du sonst verloren bist 
 lauf los aber nicht zu weit 

 mein kopf ist voill bis oben 
 meine schatten holen mich ein 
 1.000 Diagnosen 
 ja ja schon klar egal 

 Heute sind wir hier 
 die Welt bleibt vor der Tür 
 was jetzt zählt seid ihr 
 Wo sind eure Hände 
 Chaos im System 
 auch wenn wir untergehen 
 ich will euch alle sehn 
 Wo sind eure Hände 

 ich hör du kannst dich drauf verlassen 
 frag nicht alles ist geplant 
 das was mir morgen passieren wird 
 habt ihr doch gestern schon geahnt 

 links rechts oben unten 
 ich komm nirgendwo an 
 hör 1000 diagnosen 
 ja ja schon klar egal 

 Heute sind wir hier 
 die Welt bleibt vor der Tür 
 was jetzt zählt seid ihr 
 Wo sind eure Hände 
 Chaos im System 
 auch wenn wir untergehen 
 ich will euch alle sehn 
 Wo sind eure Hände 

 Heute sind wir hier 
 Wo sind eure Hände 
 die Welt bleibt vor der Tür 
 Wo sind eure Hände 
 chaos im system 
 Wo sind eure Hände 

 ich will euch alle sehn 
 ja ja schon klar egal 
 Heute sind wir hier 
 die Welt bleibt vor der Tür 
 was jetzt zählt seid ihr 
 Wo sind eure Hände 
 Chaos im System 
 auch wenn wir untergehen 
 ich will euch alle sehn 
 Wo sind eure Hände 

 Heute sind wir hier 
 Wo sind eure Hände 
 die Welt bleibt vor der Tür 
 Wo sind eure Hände 
 Chaos im System 
 Wo sind eure Hände 
 ich will euch alle sehn 
 Wo sind eure Hände 

 eure hände 
 eure hände 

 Wo sind eure Hände 
		  

Full key step upFull key step up
Half key step upHalf key step up
Half key step downHalf key step down
Full key step downFull key step down
hide glossary

See also:

tabs Emil Bulls - Between The Devil And The Deep Blue Sea tabs Tokio Hotel - Durch Den Monsun tabs Colour Haze - Antenna tabs Hüsker Dü - Something I Learned Today tabs Tokio Hotel - Unendlichkeit tabs Tokio Hotel - Freiden Bleiden
e-chords

Other versions:

tabs Tokio Hotel - Wo Sind Eure Hnde
auto scroll beats size up size down change color hide chords drawings
tab show chords e-chords YouTube Clip e-chords hide all tabs e-chords go to top tab

share