Tokio Hotel

Unendlichkeit

Tokio Hotel

tabs Easy easy

by  BOMBAXXX

save to print version add songbook text version e-mail correct tuner
chordsukulelecavacokeyboardtabbassdrumsharmonicaflute Guitar Pro
close

there isn't a video lesson for this song

chords

Unendlichkeit

	  		facilisima cancion solo tiene 3 riffs!! asi que es buenisima para principiantesxD mucha suerteee :D 

riff 1: 

----------------------------------- 
----------------------------------- 
----------------------------------- 
---2-----------5----5--5----------- 
-0---0---3---3-----3--3------------ 
-------1---1----------------------- 


riff 2: 

---------------------------------------------- 
---------------------------------------------- 
---------------------------------------------- 
---------------------------------------------- 
-8-8-8-7-7-11-11-11-11--------8-8-8-7-7-8----- 
---------------------------------------------- 


riff 3: 


-------------------- 
-------------------- 
-----333-555555----- 
-222-333-555555----- 
-000-111-333355----- 
-------------------- 

moka-chan 
		  

See also:

tabs Beatsteaks - Automatic tabs Colour Haze - Get It On tabs Saltatio Mortis - Ix tabs Tokio Hotel - 1000 Oceans tabs Tokio Hotel - Hey You tabs Hüsker Dü - Hare Krsna
e-chords

Other versions:

tabs Tokio Hotel - Unendlichkeit
auto scroll beats size up size down change color hide chords drawings
tab show chords e-chords YouTube Clip e-chords hide all tabs e-chords go to top tab

share