Tokio Hotel

home > Tokio Hotel

Scream Tab

Tokio Hotel

Difficulty: BeginnerBeginner

by francoo%5Fth

tuner correct add songbook print version text version save to e-mail
chordsukulelecavacokeyboardtabbassdrumsharmonicsflute Guitar Pro
chords

Scream

  		Scream 
intro             i dejan sonar:  
e|---------------|            |--------| 
B|---------------|            |--------| 
G|---------------|            |--------| 
D|--66—-6h7-4-66-|x4          |-66--22-| 
A|--66—-6h7-4-66-|            |-66--22-| 
E|--66—-6h7-4-66-|            |-66--22-| 


ahora tocan esto: 
NOTA:esto lo tocan antes i durante el verso! 
e|------------------| 
B|----14-----11-----| 
G|-------16-----12--| 
D|------------------| 
A|------------------| 
E|------------------| 


pre-coro 
e|--------------------| 
B|--------------------| 
G|------------6666666-| 
D|--66666666--6666666-| 
A|--66666666--6666666-| 
E|--66666666----------| 


coro 
e|---------------|  |--------------| 
B|---------------|  |--------------| 
G|---------------|  |--------------| 
D|--66—-6h7-4-66-|x3|--2222-4-2-44-|---->todo esto x2 
A|--66—-6h7-4-66-|  |--2222-4-2-44-| 
E|--66—-6h7-4-66-|  |--2222-4-2-44-| 


NOTA:esto lo tocan antes i durante el verso! 
e|------------------| 
B|----14-----11-----| 
G|-------16-----12--| 
D|------------------| 
A|------------------| 
E|------------------| 

pre-coro 
e|--------------------| 
B|--------------------| 
G|------------6666666-| 
D|--66666666--6666666-| 
A|--66666666--6666666-| 
E|--66666666----------| 


coro 
e|---------------|  |--------------| 
B|---------------|  |--------------| 
G|---------------|  |--------------| 
D|--66—-6h7-4-66-|x3|--2222-4-2-44-|---->todo esto x2 
A|--66—-6h7-4-66-|  |--2222-4-2-44-| 
E|--66—-6h7-4-66-|  |--2222-4-2-44-| 



luego viene esto: guitarra 1       i dejan sonar aki: 
e|------------------------------------------|--------| 
B|------------------------------------------|--------| 
G|-----------------------------------666666-|--------| 
D|---666666--222222--444444--666666--666666-|---6----| 
A|---666666--222222--444444--666666--666666-|---6----| 
E|---666666--222222--444444--666666---------|---6----| 



e|--1313-13h14-11-1313-| 
B|---------------------| 
G|---------------------| 
D|---------------------|---->todo esto lo tocan en todo el intermedio!! 
A|---------------------| 
E|---------------------| 


ahora ahí un silencio en donde sohloh c keda la bateria i la lira haciendo esto: 
e|--------------| 
B|--------------| 
G|--------------| 
D|--------------|x3 
A|--------------| 
E|--66-6h7-4-66-| 


coro 
e|---------------|  |--------------| 
B|---------------|  |--------------| 
G|---------------|  |--------------| 
D|--66—-6h7-4-66-|x3|--2222-4-2-44-|---->todo esto x2 
A|--66—-6h7-4-66-|  |--2222-4-2-44-| 
E|--66—-6h7-4-66-|  |--2222-4-2-44-| 


Silencio 
----------------------------------------- 

ahora tocan esto: 
e|----------------------------------------------------------------| 
B|----------------------------------------------------------------| 
G|----------------------------------------------------------------| 
D|--6h7-4h6--6h7-4h6-6h7-4h6-6h7-4h6-6h7-4h6-6h7-4h6--2222-4-2-44-|x2 
A|--6h7-4h6--6h7-4h6-6h7-4h6-6h7-4h6-6h7-4h6-6h7-4h6--2222-4-2-44-| 
E|--6h7-4h6--6h7-4h6-6h7-4h6-6h7-4h6-6h7-4h6-6h7-4h6--2222-4-2-44-| 

i termina en: 
e|-----| 
B|-----| 
G|-----| 
D|--6--| 
A|--6--| 
E|--6--|  
	  

Search Paypal
auto scroll beats size up size down change color hide chords drawings
tab show chords e-chords YouTube Clip e-chords hide all tabs e-chords go to top tab