Tokio Hotel

home > Tokio Hotel

Hey You Tab

Tokio Hotel

Difficulty: ExpertExpert

by tarikike

tuner correct add songbook print version text version save to e-mail
chordsukulelecavacokeyboardtabbassdrumsharmonicsflute Guitar Pro
chords

Hey You

  		(intro) 
E |---------| 
B |---------| 
G |-x-x-xxx-| 
D |-x-x-xxx-|  (7x) 
A |-x-x-xxx-| 
D |-x-x-xxx-| 

(pre Chorus) 
E |-------------| 
B |-------------| 
G |-------------| 
D |-xx-xx-xx-xx-| 
A |-xx-xx-xx-xx-| 
D |-xx-xx-xx-xx-| 

(Chorus) 
E |-----------------------------------| 
B |-----------------------------------| 
G |-------13/12-------12/11-----------| 
D |-11-11-xx/xx-10-10-xx/x--3-3/--6-6-| (repeat once more) 
A |-11-11-11/10-10-10-10/9--3-3/--6-6-| 
D |-11-11-------10-10-------3-3/--6-6-| 

(verse) 
E |---------| 
B |---------| 
G |-x-x-xxx-| 
D |-x-x-xxx-|  (4x) 
A |-x-x-xxx-| 
D |-x-x-xxx-| 

(Chorus) 
E |-----------------------------------| 
B |-----------------------------------| 
G |-------13/12-------12/11-----------| 
D |-11-11-xx/xx-10-10-xx/x--3-3/--6-6-| (repeat once more) 
A |-11-11-11/10-10-10-10/9--3-3/--6-6-| 
D |-11-11-------10-10-------3-3/--6-6-| 

(post Chorus) 
E |--------------------------------------| 
B |--------------------------------------| 
G |-6666/8888-----------6666/8888--------| 
D |-6666/8888-3333/6666-6666/8888-33333~-| 
A |-4444/6666-3333/6666-4444/6666-33333~-| 
D |-----------3333/6666-----------33333~-| 

(bridge) 
E |-------------------------------------------------------------------------| 
B |-------------------------------------------------------------------------| 
G |-------------------------------------------------------------------------| 
D |-3-4-5-6--6-5-4-3--3-4-5-6--6-5-4-3--3-4-5-6--6-5-4-3--3-4-5-6--6-5-4-3~-| 
A |-3-4-5-6--6-5-4-3--3-4-5-6--6-5-4-3--3-4-5-6--6-5-4-3--3-4-5-6--6-5-4-3~-| 
D |-3-4-5-6--6-5-4-3--3-4-5-6--6-5-4-3--3-4-5-6--6-5-4-3--3-4-5-6--6-5-4-3~-| 

(pre Chorus - different this time) 
E |------------| 
B |------------| 
G |------------| 
D |--3-3/--6-6-| 
A |--3-3/--6-6-| 
D |--3-3/--6-6-| 

(Chorus) 
E |-----------------------------------| 
B |-----------------------------------| 
G |-------13/12-------12/11-----------| 
D |-11-11-xx/xx-10-10-xx/x--3-3/--6-6-| (repeat once more) 
A |-11-11-11/10-10-10-10/9--3-3/--6-6-| 
D |-11-11-------10-10-------3-3/--6-6-| 

(post Chorus) 
E |--------------------------------------| 
B |--------------------------------------| 
G |-6666/8888-----------6666/8888--------| 
D |-6666/8888-3333/6666-6666/8888-33333~-| (repeat once more) 
A |-4444/6666-3333/6666-4444/6666-33333~-| 
D |-----------3333/6666-----------33333~-| 

(other) 
E |------------------------------------| 
B |------------------------------------| 
G |------------------------------------| 
D |-3-4-5-6--6-5-4-3--3-4-5-6--6-5-4-3-| 
A |-3-4-5-6--6-5-4-3--3-4-5-6--6-5-4-3-| 
D |-3-4-5-6--6-5-4-3--3-4-5-6--6-5-4-3-| 
	  

Search Paypal
auto scroll beats size up size down change color hide chords drawings
tab show chords e-chords YouTube Clip e-chords hide all tabs e-chords go to top tab