TobyMac

Gone

TobyMac

tabs

by  JOFANAN

save to print version add songbook text version e-mail correct tuner
chordsukulelecavacokeyboardtabbassdrumsharmonicaflute Guitar Pro
close

there isn't a video lesson for this song

chords

Gone

Year: 2004 - Album: Welcome to Diverse City

	  		Here it is: 
 
 
Intro: 
|--------------------------------| 
|--------------------------------| 
|------------------6-6-----------| 
|--8-8---4-4-6-6---6-6--6-6-4-4--| 
|--8-8---4-4-6-6---4-4--6-6-4-4--| 
|--6-6---2-2-4-4--------4-4-2-2--| 
 
Verse: 
Palm Mute 
|---------------------------------| 
|---------------------------------| 
|------------------6-6-6-6--------| 
|--8-8-8-8-4-4-6-6-6-6-6-6-6-6-4--| 
|--8-8-8-8-4-4-6-6-4-4-4-4-6-6-4--| 
|--6-6-6-6-2-2-4-4---------4-4-2--| 
 
Chorus: 
|--------------------------------| 
|--------------------------------| 
|------------------6-6-----------| 
|--8-8---4-4-6-6---6-6--6-6-4-4--| 
|--8-8---4-4-6-6---4-4--6-6-4-4--| 
|--6-6---2-2-4-4--------4-4-2-2--| 
 
That's it. The same riff, with palm mutes and stuff like that 
		  

auto scroll beats size up size down change color hide chords drawings
tab show chords e-chords YouTube Clip e-chords hide all tabs e-chords go to top tab

share