Thursday

Where The Circle Ends

Thursday

tabs

save to print version add songbook text version e-mail correct tuner
chordsukulelecavacokeyboardtabbassdrumsharmonicaflute Guitar Pro
close

there isn't a video lesson for this song

chords

Where The Circle Ends

	  		 
Thursday ? Where the Circle Ends 
 
Standard Tuning 
 
Guitar 1 
 
x1	0:00-0:15 
|---------------------------8-----------------------------------------------|  
|---x-----------2-----------6---5h6--5-------------1---1--3-----------------|  
|---------------------------5-----------5---2----2---2----------------------|  
|---------------------------------------------------------------------------|  
|---------------------------------------------------------------------------|  
|---------------------------------------------------------------------------|  
 
x1	0:15-0:22 
|----8----------------------------------------------------------------------|  
|----6---5h6--5-------------1---1--3----------------------------------------|  
|----5-----------5---2----2---2---------------------------------------------|  
|---------------------------------------------------------------------------|  
|---------------------------------------------------------------------------|  
|---------------------------------------------------------------------------|  
 
x1	0:23-0:37 
|--------------------------------------8-----8-----8-----8-----8-----8------|  
|---6---6h8---8----8----8----8----8------6-----6-----6-----6-----6-----6----|  
|---------------7----7----7----7----7------7-----7-----7-----7-----7-----7--|  
|---------------------------------------------------------------------------|  
|---------------------------------------------------------------------------|  
|---------------------------------------------------------------------------|  
 
x1	0:40-0:52 
|---------------------------------------8-------------------------8------8--|  
|---5-6--5---5?6p5----8--6-?8p6-----6h8---8p6---8p6-------6-8p6------5-6----|  
|-------------------------------7-------------------7---7-------7-----------|  
|---------------------------------------------------------------------------|  
|---------------------------------------------------------------------------|  
|---------------------------------------------------------------------------|  
 
x4	0:53-1:07 
|---------------------------------------------------------------------------|  
|--6--6--6---5--5--5--5--5---3--3---5---1-----------------------------------|  
|-------------------------------------------2-------------------------------|  
|---------------------------------------------------------------------------|  
|---------------------------------------------------------------------------|  
|---------------------------------------------------------------------------|  
 
x1	1:08-1:21 
|-------8--8-----------------------8--8----------------3--------------------|  
|---5h6----6---5h6---5---------5h6----6---5h6---5---------------------------|  
|----------5-------------2------------5-------------2-----------------------|  
|---------------------------------------------------------------------------|  
|---------------------------------------------------------------------------|  
|---------------------------------------------------------------------------|  
 
x	1:23-1:36 
|---------------------------8----8----8----8----8---------8--8-----8--------|  
|--8----8----8----8----8-----6----6----6----6----6----6---6---6-------6-----|  
|----7----7----7----7----7----7----7----7----7----7-------5----7---------7--|  
|---------------------------------------------------------------------------|  
|---------------------------------------------------------------------------|  
|---------------------------------------------------------------------------|  
 
x4	1:38-1:52 
|---------------------------------------------------------------------------|  
|---6-6-6---5-5-5-5-5---5--3--5--3------------------------------------------|  
|-----------------------------------2---------------------------------------|  
|---------------------------------------------------------------------------|  
|---------------------------------------------------------------------------|  
|---------------------------------------------------------------------------|  
 
x1	1:54-2:08 
|---8----------------------------------8-----8----8----8----8----8----------|  
|---6---5h6--5-------------1---1--3----6------6----6----6----6----6---------|  
|---5-----------5---2----2---2---------5-------7----7----7----7----7--------|  
|---------------------------------------------------------------------------|  
|---------------------------------------------------------------------------|  
|---------------------------------------------------------------------------|  
 
x1	2:12-2:30 
|--------------------------8----8----8----8----8---------8-------8-----8----|  
|---6----6-8----8-6-------6----6----6----6----6------6----6-----6--8-8--6---|  
|-----5-------------5----7----7----7----7----7--------7----7---7----7----7--|  
|---------------------------------------------------------------------------|  
|---------------------------------------------------------------------------|  
|---------------------------------------------------------------------------|  
 
x1	2:35-2:42 
|-----------8-----------------8---------8---8-------------------------------|  
|-----6---6---6---------6---6---6-------6-----6-----------------------------|  
|---7---7-------7-----7---7-------7-----7-------7---------------------------|  
|---------------------------------------------------------------------------|  
|---------------------------------------------------------------------------|  
|---------------------------------------------------------------------------|  
 
x1	2:54-3:02 
|---------------------------------------------------------------------------|  
|----5h6----6h8-------------------------------------------------------------|  
|--------------------7*-----------------------------------------------------|  
|---------------------------------------------------------------------------|  
|---------------------------------------------------------------------------|  
|---------------------------------------------------------------------------|  
 
 
Guitar 2 
 
x16 	0:00-1:53 
|--------------------------5---5---5--------------------------5---5---5-----|  
|---6-5-6-5-6-5-6-5-6-5-6----5---5-----6-5-6-5-6-5-6-5-6-5-6----------------|  
|---------------------------------------------------------------5---5-------|  
|---------------------------------------------------------------------------|  
|---------------------------------------------------------------------------|  
|---------------------------------------------------------------------------|  
 
x16	1:53-2:52 
|---------------------------------------------------------------------------|  
|---6-6-6---5-5-5-5-5---5--3--5--3------------------------------------------|  
|-----------------------------------2---------------------------------------|  
|---------------------------------------------------------------------------|  
|---------------------------------------------------------------------------|  
|---------------------------------------------------------------------------| 
 
 
this is the most beautiful thursday song.  the way that the two guitars blend together so well, and the simple complexity of the song are just pure genius. this tab is as close as I can get on this song.  i posted the other tab a long time ago when I figured out a few parts and was proud of it.  Email me if you like it   [email protected]      AIM: redakk 
 

		  

See also:

tabs Simon & Garfunkel - Sounds of silence tabs The Strokes - Juicebox tabs John Mayer - Belief tabs Guns N' Roses - Sweet Child o' mine tabs Guns N' Roses - November Rain tabs Foo Fighters - Everlong (acústico)
e-chords

Other versions:

tabs Thursday - Where The Circle Ends
auto scroll beats size up size down change color hide chords drawings
tab show chords e-chords YouTube Clip e-chords hide all tabs e-chords go to top tab

share