Thursday

Paris In Flames (ver. 2)

Thursday

tabs

save to print version add songbook text version e-mail correct tuner
chordsukulelecavacokeyboardtabbassdrumsharmonicaflute Guitar Pro
close

there isn't a video lesson for this song

chords

Paris In Flames (ver. 2)

	  		Tabber: Ryan Bechtel 
E-Mail: [email protected] 
 
.	= palm mute 
h	= hammer 
~	= hold note 
()	= play when specified 
#|#	= double digit frets (i.e. 12, not 1 2) 
>	= repeat same note until change 
 
Intro: x2 
 
E|------------------------------------------------------| 
B|------------------------------------------------------| 
G|------------------------------------------------------| 
D|----8-8-8---8-8-8----7-7-7---7-7-7--(7-8)-------------| 
A|----8-8-8---8-8-8----7-7-7---7-7-7--(7-8)--{2nd Time}-| 
E|----6-6-6~--6-6-6~---5-5-5~--5-5-5--(5-6)-------------| 
 
 
pre-Verse: x2 
 
E|-------------------------------|  |----------------------------| 
B|-------------------------------|  |----------------------------| 
G|-----------10--------10----10--|  |-------9---------9-----9----| 
D|-----88--8-x---88-8-x--88-x----|x2|--777--x--77-7--x--77-x-----|x2 
A|-----88--8-8---88-8-8--88-8----|  |--777--7--77-7--7--77-7-----| 
E|-----66--6-----66-6----66------|  |--555-----55-5-----55-------| 
       ..  .     .. .    ..            ...     .. . 
 
Verse: x4 
 
E|------------------------------------------------------------| 
B|------------------------------------------------------------| 
G|------------------------------------------------------------| 
D|----8-8-888-7-7-7-7-----------------------------------------| 
A|----8-8-888-7-7-7-7--8-7-10|10|10------12|12|12-------------| 
E|----6-6-666-5-5-5-5----------------88-----------------------| 
 
Chorus: 
 
E|----------------------------------------------------------------------------------------| 
B|----------------------------------------------------------------------------------------| 
G|-------------------------7-7------------------------------------------------------------| 
D|-----8-8-88-88-8-8--7-7--7-7--5-5-5-4-44-2-22-22-22-2-2---------------------------2222--| 
A|-----8-8-88-88-8-8--7-7--5-5--5-5-5-4-44-2-22-22-22-2-2---8-7-10-10|10|10|10------2222--| 
E|-----6-6-66-66-6-6--5-5-------3-3-3-2-22-0-00-00-00-0-0---------------------------0000--| 
										    .... 
Post-Chorus: 
 
E|----------------| 
B|----------------| 
G|-10>--9>--5>--4>| 
D|----------------| 
A|-8>---7>--3>--2>| 
E|----------------| 
 
Bridge: x7 
 
e|------------------| 
B|------------------| 
G|-12h14------------| 
D|-------12h14---12-| 
A|-------------12---| 
E|------------------| 
 
Fill: 
 
E|------| 
G|------| 
B|------| 
D|-2222-| 
A|-2222-| 
E|-0000-| 
   .... 
 
Chorus Variation: x2 
 
same as chorus except 2nd time throught play the end of verse instead of the dead E 
 
Pre-Verse 
 
Pre-Solo: 
 
E|------------------------------| 
B|------------------------------| 
G|------------------------------| 
D|----88----88------77----77----| 
A|----88----88------77----77----| 
E|----66----66------55----55----| 
      ..    ..      ..    .. 
 
wait for bass solo... then play 
 
Pre-Bridge: 
 
E|-------------------| 
B|-------------------| 
G|-------------------| 
D|---5~--2~--3~--0~--| 
A|-------------------| 
E|-------------------| 
 
Bridge: a LOT of times 
 
Outro: a lot of times 
 
E|----------------------------------------------------------------------| 
B|----------------------------------------------------------------------| 
G|----------------------------------------------------------------------| 
D|--22--22--7777--33333333--10|10|10|10|10|10|10|10--12|12-99999999-----| 
A|--22--22--7777--33333333--10|10|10|10|10|10|10|10--12|12-99999999-----| 
E|--00--00--5555--11111111--8  8  8  8  8  8  8  8---10|10-77777777-----| 
 
End With: 
 
E|---------------------------------| 
B|---------------------------------| 
G|---------------------------------| 
D|---------------------------------| 
A|----8-7-10|10|10-----12|12|12~---| 
E|-----------------8-8-------------| 
 

		  

Full key step upFull key step up
Half key step upHalf key step up
Half key step downHalf key step down
Full key step downFull key step down
hide glossary

See also:

tabs The Doors - People Are Strange tabs The Offspring - The Kids Aren't Alright tabs Jack Johnson - Upside down tabs Guns N' Roses - November Rain (Ver. Acoustic) tabs Jack Johnson - Banana Pancakes (ver. 3) tabs Guns N' Roses - You Could Be Mine
e-chords

Other versions:

tabs Thursday - Paris In Flames tabs Thursday - Paris In Flames (ver. 2)
auto scroll beats size up size down change color hide chords drawings
tab show chords e-chords YouTube Clip e-chords hide all tabs e-chords go to top tab

share