Thursday

Jet Black New Year

Thursday

tabs

save to print version add songbook text version e-mail correct tuner
chordsukulelecavacokeyboardtabbassdrumsharmonicaflute Guitar Pro
close

there isn't a video lesson for this song

chords

Jet Black New Year

	  		Thursday ? Jet Black New Year 
 
Drop D Tuning 
 
x3	0:00-0:19 
|---------------------------------------------------------------------------|  
|---------------------------------------------------------------------------|  
|--x-x-x-x-x--7-7-7--x-x-x-x-x--7-7-7--x-x-x-x-x--7-7-7--x-x-x-x-x--7-7-7---|  
|--x-x-x-x-x---------x-x-x-x-x---------x-x-x-x-x---------x-x-x-x-x--7-7-7---|  
|--x-x-x-x-x--5-5-5--x-x-x-x-x--5-5-5--x-x-x-x-x--5-5-5--x-x-x-x-x--5-5-5---|  
|--x-x-x-x-x--0-0-0--x-x-x-x-x--0-0-0--x-x-x-x-x--0-0-0--x-x-x-x-x--0-0-0---|  
 
x1	0:20-0:31 
|---------------------------------------------------------------------------|  
|---------------------------------------------------------------------------|  
|---------7-7---x-x-x-x---7---7/14-----------7-7---x-x-x-x---7---7/17-------|  
|---0-0---------x-x-x-x----------------0-0---------x-x-x-x------------------|  
|---0-0---5-5---x-x-x-x---5---5/12-----0-0---5-5---x-x-x-x---5---5/15-------|  
|---0-0---0-0---x-x-x-x---0------------0-0---0-0---x-x-x-x---0--------------|  
 
|---------------------------------------------------------------------------|  
|---------------------------------------------------------------------------|  
|---------7-7---x-x-x-x---7---7/14-----15-/-14---15/14----12-12---12--------|  
|---0-0---------x-x-x-x-----------------------------------------------------|  
|---0-0---5-5---x-x-x-x---5---5/12-----13-/-12---13/12----10-10---10--------|  
|---0-0---0-0---x-x-x-x---0-------------------------------------------------|  
 
 
x2	0:31-0:49 
|---------------------------------------------------------------------------|  
|---------------------------------------------------------------------------|  
|---21-21-21-21---17-17-17-17---19-19-19-19---16-16-16-16-------------------|  
|---------------------------------------------------------------------------|  
|---19-19-19-19---15-15-15-15---17-17-17-17---14-14-14-14-------------------|  
|---------------------------------------------------------------------------|  
 
x1	0:49-0:55 
|---------------------------------------------------------------------------|  
|---------------------------------------------------------------------------|  
|---21---x-x-x-x---21---x-x-x-x----10---9----5----5---9---10----------------|  
|--------x-x-x-x--------x-x-x-x---------------------------------------------|  
|---19---x-x-x-x---19---x-x-x-x----8----7----3----3---7---8-----------------|  
|--------x-x-x-x--------x-x-x-x---------------------------------------------|  
 
x2	0:56-1:19 
|---0-------7----------8----------10----------------------------------------|  
|---3-------8--8-------8--8-------13----------------------------------------|  
|---2-------9----9-----9----9-----12----------------------------------------|  
|---0-------7----------8----------10----------------------------------------|  
|---0-------7----------8----------10----------------------------------------|  
|---0-------7----------8----------10----------------------------------------|  
 
x1	1:20-1:32 
|---------------------------------------------------------------------------|  
|---------------------------------------------------------------------------|  
|---------7-7---x-x-x-x---7---7/14-----------7-7---x-x-x-x---7---7/17-------|  
|---0-0---------x-x-x-x----------------0-0---------x-x-x-x------------------|  
|---0-0---5-5---x-x-x-x---5---5/12-----0-0---5-5---x-x-x-x---5---5/15-------|  
|---0-0---0-0---x-x-x-x---0------------0-0---0-0---x-x-x-x---0--------------|  
 
|---------------------------------------------------------------------------|  
|---------------------------------------------------------------------------|  
|---------7-7---x-x-x-x---7---7/14-----15-/-14---15/14----12-12---12--------|  
|---0-0---------x-x-x-x-----------------------------------------------------|  
|---0-0---5-5---x-x-x-x---5---5/12-----13-/-12---13/12----10-10---10--------|  
|---0-0---0-0---x-x-x-x---0-------------------------------------------------|  
 
x1	1:32-1:42 
|---------------------------------------------------------------------------|  
|---------------------------------------------------------------------------|  
|---7-7-7-----7-7-7-----7-7-7-----7-7-7-----7-7-7-----7-7-7-----------------|  
|---8-8-8-----8-8-8-----8-8-8-----8-8-8-----7-7-7-----8-8-8-----------------|  
|---5-5-5-----5-5-5-----5-5-5-----5-5-5-----5-5-5-----5-5-5-----------------|  
|---------------------------------5-5-5-----5-5-5-----5-5-5-----------------|  
 
x3	1:43-2:03 
|---------------------------------------------------------------------------|  
|---------------------------------------------------------------------------|  
|---7-7---x-x-x-x-x-x---7-7---x-x-x-x-x-x---7-7---x-x-x-x-x-x---7-7---7-7---|  
|---8-8---x-x-x-x-x-x---8-8---x-x-x-x-x-x---7-7---x-x-x-x-x-x---8-8---7-7---|  
|---5-5---x-x-x-x-x-x---5-5---x-x-x-x-x-x---5-5---x-x-x-x-x-x---5-5---5-5---|  
|---5-5---x-x-x-x-x-x---5-5---x-x-x-x-x-x---5-5---x-x-x-x-x-x---5-5---5-5---|  
 
x1	2:04-2:07 
|---------------------------------------------------------------------------|  
|--------------12*----------------------------------------------------------|  
|---0~---------12*----------------------------------------------------------|  
|---0~---------12*----------------------------------------------------------|  
|---0~----------------------------------------------------------------------|  
|---0~----------------------------------------------------------------------|  
 
x4	2:07-2:21 
|---------------------------------------------------------------------------|  
|---------------------------------------------------------------------------|  
|----0-0---7-7-----0-0---7-7-----0-0---7------------------------------------|  
|----0-0-----------0-0-----------0-0----------------------------------------|  
|----0-0---5-5-----0-0---5-5-----0-0---5------------------------------------|  
|----0-0-----------0-0-----------0-0----------------------------------------|  
 
x2	2:22-2:46 
|---0-------7----------8----------10----------------------------------------|  
|---3-------8--8-------8--8-------13----------------------------------------|  
|---2-------9----9-----9----9-----12----------------------------------------|  
|---0-------7----------8----------10----------------------------------------|  
|---0-------7----------8----------10----------------------------------------|  
|---0-------7----------8----------10----------------------------------------|  
 
x1	2:47-2:56 
|---------------------------------------------------------------------------|  
|---------------------------------------------------------------------------|  
|---0-0-0-0--x-x-x--7-7-7-7--9-9---0-0-0-0--x-x-x--7-7-5-5-7-7--------------|  
|---0-0-0-0--x-x-x-----------------0-0-0-0--x-x-x---------------------------|  
|---0-0-0-0--x-x-x--5?5-5-5--7-7---0-0-0-0--x-x-x--5-5-3-3-5-5--------------|  
|---0-0-0-0------------------------0-0-0-0----------------------------------|  
 
|---------------------------------------------------------------------------|  
|---------------------------------------------------------------------------|  
|---0-0-0-0--x-x-x--7-7-7-7--9-9---0-0-0-0----------------------------------|  
|---0-0-0-0--x-x-x-----------------0-0-0-0----------------------------------|  
|---0-0-0-0--x-x-x--5?5-5-5--7-7---0-0-0-0----------------------------------|  
|---0-0-0-0------------------------0-0-0-0----------------------------------|  
 
x1	2:56-3:45 
|---------------------------------------------------------------------------|  
|--3--3--6--8---3--3--6--8---10--10--13--15---10--10--13--15-14-15-17-15-14-|  
|--2--2--5--7---2--2--5--7---9---10--12--14---9---10--12--------------------|  
|--0--2--3--5---0--2--3--5---7---8---10--12---7---8---10--13-12-13-15-13-12-|  
|---------------------------------------------------------------------------|  
|---------------------------------------------------------------------------|  
 
x2	3:36-4:09 
|---------------------------------------------------------------------------|  
|---------------------------------------------------------------------------|  
|---------7-7---x-x-x-x---7---7/14-----------7-7---x-x-x-x---7---7/17-------|  
|---0-0---------x-x-x-x----------------0-0---------x-x-x-x------------------|  
|---0-0---5-5---x-x-x-x---5---5/12-----0-0---5-5---x-x-x-x---5---5/15-------|  
|---0-0---0-0---x-x-x-x---0------------0-0---0-0---x-x-x-x---0--------------|  
 
|---------------------------------------------------------------------------|  
|---------------------------------------------------------------------------|  
|---------7-7---x-x-x-x---7---7/14-----15-/-14---15/14---15--14--15?17------|  
|---0-0---------x-x-x-x-----------------------------------------------------|  
|---0-0---5-5---x-x-x-x---5---5/12-----13-/-12---13/12---13--12--13--15-----|  
|---0-0---0-0---x-x-x-x---0-------------------------------------------------|  
 
x1	4:10-4:21 
|---------------------------------------------------------------------------|  
|---------------------------------------------------------------------------|  
|--19-19-19-19--17-17-17-17--15-14-15-14-14-14--7-7-7-8-8-8-7-7-7-10-10-10--|  
|---------------------------------------------------------------------------|  
|--17-17-17-17--15-15-15-15--13-12-13-12-12-12--5-5-5-6-6-6-5-5-5-8--8--8---| 
|---------------------------------------------------------------------------|  
 
x1	4:22-4:34 
|---------------------------------------------------------------------------|  
|---------------------------------------------------------------------------|  
|--19-19-19-19--17-17-17-17--15-14-15-14-14-14--------7-------7-----7--0~---|  
|-----------------------------------------------------8-------8-----8--0~---|  
|--17-17-17-17--15-15-15-15--13-12-13-12-12-12--------5-------5-----5--0~---| 
|-----------------------------------------------0-0-0---0-0-0---0-0----0~---|  
 
 
this song gives me the chills. I love it. i found the other tab on a different site and posted it here a while ago.  I went back through and changed a few little things to make it sound closer to the song.   any questions or comments   [email protected]      AIM: redakk 
 

		  

Full key step upFull key step up
Half key step upHalf key step up
Half key step downHalf key step down
Full key step downFull key step down
hide glossary

See also:

tabs Simon & Garfunkel - Sounds of silence tabs The Strokes - Juicebox tabs John Mayer - Belief tabs Guns N' Roses - Sweet Child o' mine tabs Guns N' Roses - November Rain tabs Foo Fighters - Everlong (acústico)
e-chords

Other versions:

tabs Thursday - Jet Black New Year
auto scroll beats size up size down change color hide chords drawings
tab show chords e-chords YouTube Clip e-chords hide all tabs e-chords go to top tab

share