Three Doors Down

Let me go

Three Doors Down

tabs Beginner beginner

save to print version add songbook text version e-mail correct tuner
chordsukulelecavacokeyboardtabbassdrumsharmonicaflute Guitar Pro
close

there isn't a video lesson for this song

chords

Let me go

	  		 
intro 2X 
E|--------------------------------------| 
B|--------------------------------------| 
G|--4h6-6-6----4-4-4----2-2-2---4-4-4---| 
D|--4h6-6-6----4-4-4----2-2-2---4-4-4---| 
A|--4-4-4-4----2-2-2----0-0-0---2-2-2---| 
E|--------------------------------------| 
a guitarra 2 entra fazendo este solo na segunda vez 
E|--------------------------------------| 
B|---------5---------------------5------| 
G|-------6---6------4/6-6/4--4/6---6----| 
D|-----6-------6------------------------| 
A|---4----------------------------------| 
E|--------------------------------------| 
 
depois o verso é feito assim 
E|--------------------------------------| 
B|--------------------------------------| 
G|--4h6-6-6----4-4-4----2-2-2---4-4-4---| 
D|--4h6-6-6----4-4-4----2-2-2---4-4-4---| 
A|--4-4-4-4----2-2-2----0-0-0---2-2-2---| 
One more kiss could be the best thing 
One more lie could be the worst 
And all these thoughts are never resting 
And you're not something I deserve 
 
 
E|--------------------------------------| 
B|--------------------------------------| 
G|--------------------------------------| 
D|---4--7-------------------------------| 
A|---4--7-------------------------------| 
E|---2--5-------------------------------| 
In my head there's only you now 
This world falls on me          
In this world, there's real and make-believe 
This seems real to me 
 
refrao 
E|------------------------------------| 
B|------------------------------------| 
G|----4---6---2-----------------------| 
D|-2--4---6---2-----------------------| 
A|-2--2---4---0-----------------------| 
E|-0----------------------------------| 
guitarra 2  refrao 
E|--------------------------------------| 
B|--------------------------------------| 
G|--6--4--2--4--------------------------| 
D|--6--4--2--4--------------------------| 
A|--4--2--0--2--------------------------| 
E|--4--2--0--2--------------------------| 
 
E    B                    C#              A     E 
You love me but you don't know who I am 
C#    B                       C#             A 
I'm torn between this life I lead and where I stand 
 E      B                C#                A     E 
You love me but you don't know who I am 
C#     B            G#   A 
So let me go,  Let me go 
 
segunda parte parte 
E|--------------------------------------| 
B|--------------------------------------| 
G|--4h6-6-6----4-4-4----2-2-2---4-4-4---| 
D|--4h6-6-6----4-4-4----2-2-2---4-4-4---| 
A|--4-4-4-4----2-2-2----0-0-0---2-2-2---| 
I dream ahead to what I hope for 
And I turn my back on loving you 
How can this love be a good thing? 
I not know what I'm going through 
 
E|--------------------------------------| 
B|--------------------------------------| 
G|--------------------------------------| 
D|---4--7-------------------------------| 
A|---4--7-------------------------------| 
E|---2--5-------------------------------| 
In my head there's only you now 
This world falls on me 
In this world, there's real and make-believe 
This seems real to me 
 
refrao 
E|------------------------------------| 
B|------------------------------------| 
G|----4---6---2-----------------------| 
D|-2--4---6---2-----------------------| 
A|-2--2---4---0-----------------------| 
E|-0----------------------------------| 
guitarra 2  refrao 
E|--------------------------------------| 
B|--------------------------------------| 
G|--6--4--2--4--------------------------| 
D|--6--4--2--4--------------------------| 
A|--4--2--0--2--------------------------| 
E|--4--2--0--2--------------------------| 
 
E    B                    C#              A     E 
You love me but you don't know who I am 
C#    B                       C#             A 
I'm torn between this life I lead and where I stand 
 E      B                C#                A     E 
You love me but you don't know who I am 
C#     B            G#   A 
So let me go, Just let me go, Let me go 
 
depois do refrao a guitarra 2 faz esse solo 
E|--------------------------------------| 
B|--5-----5----5--5---9-----------------| 
G|----6-4--6-4--6--6--------------------| 
D|--------------------------------------| 
A|--------------------------------------| 
E|--------------------------------------| 
C#             E 
And no matter how hard I try 
B                 A 
I can't escape these things inside 
C# E     B    A 
I know, I know 
C#               E 
When all the pieces fall apart 
 B                     A 
You will be the only one who knows 
C#   E     B    A 
Who knows   
 
refrao 
E|------------------------------------| 
B|------------------------------------| 
G|----4---6---2-----------------------| 
D|-2--4---6---2-----------------------| 
A|-2--2---4---0-----------------------| 
E|-0----------------------------------| 
guitarra 2  refrao 
E|--------------------------------------| 
B|--------------------------------------| 
G|--6--4--2--4--------------------------| 
D|--6--4--2--4--------------------------| 
A|--4--2--0--2--------------------------| 
E|--4--2--0--2--------------------------| 
 
E    B                    C#              A     E 
You love me but you don't know who I am 
C#    B                       C#             A 
I'm torn between this life I lead and where I stand 
 E      B                C#                A     E 
You love me but you don't know who I am 
C#     B            G#   A 
So let me go,  Let me go 
 
_______________________________________________________ 
Contribuição: **Filipe**([email protected]) 

		  

Full key step upFull key step up
Half key step upHalf key step up
Half key step downHalf key step down
Full key step downFull key step down
hide glossary

See also:

tabs Yes - Roundabout tabs Queen - we will rock you (solo) tabs Status Quo - Whatever you want tabs Eric Clapton - Tears In Heaven (ver. 3) tabs The Beatles - Blackbird tabs Billy Idol - White Wedding
e-chords

Other versions:

tabs Cake - Let Me Go tabs Three Doors Down - Let me go tabs Maverick Sabre - Let Me Go tabs Good Charlotte - Let Me Go tabs Bread - Let Me Go tabs Reset - Let Me Go Intro
auto scroll beats size up size down change color hide chords drawings
tab show chords e-chords YouTube Clip e-chords hide all tabs e-chords go to top tab

share