Three Doors Down

By My Side

Three Doors Down

tabs

save to print version add songbook text version e-mail correct tuner
chordsukulelecavacokeyboardtabbassdrumsharmonicaflute Guitar Pro
close

there isn't a video lesson for this song

chords

By My Side

	  		 
Intro and chorus 
 
--------------------------------------------------------------- 
--------------------------------------------------------------- 
--------------------------------------------------------------- 
-5-5----------------8-8--------------5-5---------------8-8----8--5-5----------- 
-5-5-6p5h6p5--8-8-85h6p5--5-5-6p5h6p5--8-8-8-----5-5--6p5h6p5-- 
-3-3----------------6-6--------------3-3---------------6-6--------3-3----------- 
 
 
------------------------------------| 
------------------------------------| 
------------------------------------| 
-8-8---------------5-5-------------8-8-8-8-8-| 
-8-8-85h6p5--5-5-6p5h6p--8-8-8-8-8-| 
-6-6---------------3-3-------------6-6-6-6-6-| 
 
Right after Intro. Palm mute for the verse 
------------------------------------------------------- 
------------------------------------------------------- 
-------------8--8--8--------------10--10--10---- 
-5--5--5---8--8--8--8--8--8--10--10--10---- 
-5--5--5---6--6--6--8--8--8---8---8---8------ 
-3--3--3--------------6--6--6-------------------- 
 
This Riff shows up a couple times 
------------------------------------------------------ 
------------------------------------------------------ 
------------------------------------------------------ 
-5-5-----------------------5-5------------------------ 
-5-5-2-5-6-7-6-5-3-2-3-0-0-5-5-2-5-6-7-6-5-3-2-3-0-4-- 
-3-3-----------------------3-3----------------------------------------- 
     |pm..................|    |pm..................| 
 
This riff shows up once 
-----------------------------------------------| 
-----------------------------------------------| 
--------------------------------------------5---5---5-| 
-5---5---5---8---8---8---5---5---5---5---5---5-| 
-5---5---5---8---8---8---5---5---5---3---3---3-| 
-3---3---3---6---6---6---3---3---3-------------| 
|pm...........................................| 
 
==================================================== 
		  

See also:

tabs Billy Idol - White Wedding tabs Heart - Barracuda tabs The Beatles - Let It Be tabs The Shadows - Apache tabs The Cranberries - Ode to my Family tabs Dire Straits - Why Worry
e-chords

Other versions:

tabs Three Doors Down - By My Side tabs 3 Doors Down - By my side(solo)
auto scroll beats size up size down change color hide chords drawings
tab show chords e-chords YouTube Clip e-chords hide all tabs e-chords go to top tab

share