Three Days Grace

home > Three Days Grace

Fallen Angel Tab

Three Days Grace

Difficulty: nolevelnolevel

by aleffederico

tuner correct add songbook print version text version save to e-mail
chordsukulelecavacokeyboardtabbassdrumsharmonicsflute Guitar Pro
chords

Fallen Angel

  		INTRO/Verse: 
E|------------------------------------------------| 
B|------------------------------------------------| 
G|--------14~---------12~---------15~---------14~-| 
D|------------------------------------------------| 
A|-----12~---------12~---------12~---------12~----| 
D|--12~---------12~---------12~---------12~-------| 

PREChorus: 

Lead/Synth: 
E|---------------------------------------------| 
B|---------------------------------------------| 
G|--14--12--15--14--14--12--15--14--14--12--15-| 
D|---------------------------------------------| 
A|---------------------------------------------| 
D|---------------------------------------------| 

Rythm: 
E|---------------------------------------------| 
B|---------------------------------------------| 
G|---------------------------------------------| 
D|--8~--------------3~--------------0~---------| 
A|--8~--------------3~--------------0~---------| 
D|--8~--------------3~--------------0~---------| 


Chorus: 

Lead/Synth: 
E|--17~---13~---10~---15~----17~---13~---10~---11~-| 
B|-------------------------------------------------| 
G|-------------------------------------------------| 
D|-------------------------------------------------| 
A|-------------------------------------------------| 
D|-------------------------------------------------| 

Rythm: 
E|-------------------------------------------------| 
B|-------------------------------------------------| 
G|-------------------------------------------------| 
D|--0~----8~----3~----10~----0~----8~----3~----5~--| 
A|--0~----8~----3~----10~----0~----8~----3~----5~--| 
D|--0~----8~----3~----10~----0~----8~----3~----5~--| 


Bridge: 

Lead/Snyth: 
E|--18-------18-------20-------20-------18-------18-------17-------17-------| 
B|-----19-17----19-17----19-17----19-17----19-17----19-17----17-15----17-15-| 
G|--------------------------------------------------------------------------| 
D|--------------------------------------------------------------------------| 
A|--------------------------------------------------------------------------| 
D|--------------------------------------------------------------------------| 

Rythm: 
E|--------------------------------------------------------------------------| 
B|--------------------------------------------------------------------------| 
G|--------------------------------------------------------------------------| 
D|--8~----------------10~---------------0~----------------10~---------------| 
A|--8~----------------10~---------------0~----------------10~---------------| 
D|--8~----------------10~---------------0~----------------10~---------------| 

Lead/Synth: 
E|--13~---------------15~---------------17~------| 
B|-----------------------------------------------| 
G|-----------------------------------------------| 
D|-----------------------------------------------| 
A|-----------------------------------------------| 
D|-----------------------------------------------| 

Rythm: 
E|-----------------------------------------------| 
B|-----------------------------------------------| 
G|-----------------------------------------------| 
D|--8~----------------10~---------------0~-------| 
A|--8~----------------10~---------------0~-------| 
D|--8~----------------10~---------------0~-------| 
	  

Search Paypal
auto scroll beats size up size down change color hide chords drawings
tab show chords e-chords YouTube Clip e-chords hide all tabs e-chords go to top tab