Thousand Foot Krutch

Searchlight

Thousand Foot Krutch

tabs

by  VSWORLD

save to print version add songbook text version e-mail correct tuner
chordsukulelecavacokeyboardtabbassdrumsharmonicaflute Guitar Pro
close

there isn't a video lesson for this song

chords

Searchlight

	  		

Introduction 
Guitar 2 
C#|-11---11---11---11---------------------------------------------------------| 
G#|----9----9----9----9-------------------------------------------------------| 
E|----------------------------------------------------------------------------| 
b|----------------------------------------------------------------------------| 
F#|---------------------------------------------------------------------------| 
B|----------------------------------------------------------------------------| 

Verse I(For Guitar 2, the C#|-11---| continues for another measure, so you could choose to 
                            G#|----9-| 
                                       play that instead of C#|-11-11-11-11-11-11-11-11-| 
                                                            G#|-----8--8--8--8--8--8--8-| 
Guitar 2 
C#|-11---11---11---11---11-11-11-11-11-11-11-11-------------------------------| 
G#|----9----9----9----9-----8--8--8--8--8--8--8-------------------------------| 
E|----------------------------------------------------------------------------| 
b|----------------------------------------------------------------------------| 
F#|---------------------------------------------------------------------------| 
B|----------------------------------------------------------------------------|  
I pick the 8 and 11 with my fingers rather than strum them together because I think 
 it sounds better that way but it's all preference  

C#|-8---8---8---8---9---9---9---9---------------------------------------------| 
G#|---9---9---9---9---9---9---9---9-------------------------------------------| 
E|----------------------------------------------------------------------------| 
b|----------------------------------------------------------------------------| 
F#|---------------------------------------------------------------------------| 
B|----------------------------------------------------------------------------| 

C#|-11---11---11---11---11-11-11-11-11-11-11-11-------------------------------| 
G#|----9----9----9----9-----8--8--8--8--8--8--8-------------------------------| 
E|----------------------------------------------------------------------------| 
b|----------------------------------------------------------------------------| 
F#|---------------------------------------------------------------------------| 
B|----------------------------------------------------------------------------| 

C#|-8---8---8---8---9---9-----------------------------------------------------| 
G#|---9---9---9---9---9---9---------------------------------------------------| 
E|----------------------------------------------------------------------------| 
b|----------------------------------------------------------------------------| 
F#|---------------------------------------------------------------------------| 
B|----------------------------------------------------------------------------| 

Chorus I 
Guitar 2 
C#|-4---------8---------6--------6--6-----6--4--------------------------------| 
G#|----4-4-------4-4-------4-4---------4--------------------------------------| 
E|----------------------------------------------------------------------------| 
b|----------------------------------------------------------------------------| 
F#|---------------------------------------------------------------------------| 
B|----------------------------------------------------------------------------| 

C#|-4---------6-------6--4---------6--------6---------------------------------| 
G#|----4-4-------4-4--------4-4-------4--4------------------------------------| 
E|----------------------------------------------------------------------------| 
b|----------------------------------------------------------------------------| 
F#|---------------------------------------------------------------------------| 
B|----------------------------------------------------------------------------| 

C#|-4---------8---------6--------6--6-----6--4--------------------------------| 
G#|----4-4-------4-4-------4-4---------4--------------------------------------| 
E|----------------------------------------------------------------------------| 
b|----------------------------------------------------------------------------| 
F#|---------------------------------------------------------------------------| 
B|----------------------------------------------------------------------------| 

C#|-4---------6-------6--4---------6------------------------------------------| 
G#|----4-4-------4-4--------4-4-------4--4------------------------------------| 
E|----------------------------------------------------------------------------| 
b|----------------------------------------------------------------------------| 
F#|---------------------------------------------------------------------------| 
B|----------------------------------------------------------------------------| 

Guitar 1 (x2) 
C#|---------------------------------------------------------------------------| 
G#|---------------------------------------------------------------------------| 
E|----------------------------------------------------------------------------| 
b|-6--------1--------3--------11----------------------------------------------| 
F#|6-(x16)--1-(x16)--3-(x16)--11-(x16)----------------------------------------| 
B|-6--------1--------3--------11----------------------------------------------| 

Verse II(Same as Verse I)(Guitar 1 plays four muted chords before the Chorus) 

Chorus II 
Guitar 2 
C#|-4---------8---------6--------6--6-----6--4--------------------------------| 
G#|----4-4-------4-4-------4-4---------4--------------------------------------| 
E|----------------------------------------------------------------------------| 
b|----------------------------------------------------------------------------| 
F#|---------------------------------------------------------------------------| 
B|----------------------------------------------------------------------------| 

C#|-4---------6-------6--4---------6--------6---------------------------------| 
G#|----4-4-------4-4--------4-4-------4--4------------------------------------| 
E|----------------------------------------------------------------------------| 
b|----------------------------------------------------------------------------| 
F#|---------------------------------------------------------------------------| 
B|----------------------------------------------------------------------------| 

C#|-4---------8---------6--------6--6-----6--4--------------------------------| 
G#|----4-4-------4-4-------4-4---------4--------------------------------------| 
E|----------------------------------------------------------------------------| 
b|----------------------------------------------------------------------------| 
F#|---------------------------------------------------------------------------| 
B|----------------------------------------------------------------------------| 

C#|-4---------6-------6--4---------6------------------------------------------| 
G#|----4-4-------4-4--------4-4-------4--4------------------------------------| 
E|----------------------------------------------------------------------------| 
b|----------------------------------------------------------------------------| 
F#|---------------------------------------------------------------------------| 
B|----------------------------------------------------------------------------| 

C#|-11---11-------------------------------------------------------------------| 
G#|----9----9--(x15)-9-9-9-9--------------------------------------------------| 
E|----------------------------------------------------------------------------| 
b|----------------------------------------------------------------------------| 
F#|---------------------------------------------------------------------------| 
B|----------------------------------------------------------------------------| 

Guitar 1 (x4) 
C#|---------------------------------------------------------------------------| 
G#|---------------------------------------------------------------------------| 
E|----------------------------------------------------------------------------| 
b|-6--------1--------3--------11----------------------------------------------| 
F#|6-(x16)--1-(x16)--3-(x16)--11-(x16)----------------------------------------| 
B|-6--------1--------3--------11----------------------------------------------| 

Bridge 
Guitar 1  
C#|---------------------------------------------------------------------------| 
G#|---------------------------------------------------------------------------| 
E|----------------------------------------------------------------------------| 
b|-10-------11-------6-------4-------10-------11------------------------------| 
F#|10-(x8)--11-(x8)--6-(x8)--4-(x8)--10-(x8)--11-(x8)-------------------------| 
B|-10-------11-------6-------4-------10-------11------------------------------| 
   All six chords above are palm-muted 

C#|---------------------------------------------------------------------------| 
G#|---------------------------------------------------------------------------| 
E|----------------------------------------------------------------------------| 
b|--6-------4------11-11-11-11------------------------------------------------| 
F#|-6-(x4)--4-(x3)-11-11-11-11-(LR)-------------------------------------------| 
B|--6-------4------11-11-11-11------------------------------------------------| 

Chorus III 
Guitar 2 
C#|----6--------6--6-----6--4-------------------------------------------------| 
G#|-------4-4---------4-------------------------------------------------------| 
E|----------------------------------------------------------------------------| 
b|----------------------------------------------------------------------------| 
F#|---------------------------------------------------------------------------| 
B|----------------------------------------------------------------------------| 

C#|---4---------6--------6----------------------------------------------------| 
G#|------4-4-------4--4-------------------------------------------------------| 
E|----------------------------------------------------------------------------| 
b|----------------------------------------------------------------------------| 
F#|---------------------------------------------------------------------------| 
B|----------------------------------------------------------------------------| 

C#|-4---------8---------6--------6--6-----6--4--------------------------------| 
G#|----4-4-------4-4-------4-4---------4--------------------------------------| 
E|----------------------------------------------------------------------------| 
b|----------------------------------------------------------------------------| 
F#|---------------------------------------------------------------------------| 
B|----------------------------------------------------------------------------| 

C#|-4---------6-------6--4---------6------------------------------------------| 
G#|----4-4-------4-4--------4-4-------4--4------------------------------------| 
E|----------------------------------------------------------------------------| 
b|----------------------------------------------------------------------------| 
F#|---------------------------------------------------------------------------| 
B|----------------------------------------------------------------------------| 

C#|-11---11-------------------------------------------------------------------| 
G#|----9----9--(x15)-9-9-9-9--------------------------------------------------| 
E|----------------------------------------------------------------------------| 
b|----------------------------------------------------------------------------| 
F#|---------------------------------------------------------------------------| 
B|----------------------------------------------------------------------------| 

C#|-4---------8---------6--------6--6-----6--4--------------------------------| 
G#|----4-4-------4-4-------4-4---------4--------------------------------------| 
E|----------------------------------------------------------------------------| 
b|----------------------------------------------------------------------------| 
F#|---------------------------------------------------------------------------| 
B|----------------------------------------------------------------------------| 

C#|-4---------6-------6--4---------6--------6---------------------------------| 
G#|----4-4-------4-4--------4-4-------4--4------------------------------------| 
E|----------------------------------------------------------------------------| 
b|----------------------------------------------------------------------------| 
F#|---------------------------------------------------------------------------| 
B|----------------------------------------------------------------------------| 

C#|-4---------8---------6--------6--6-----6--4--------------------------------| 
G#|----4-4-------4-4-------4-4---------4--------------------------------------| 
E|----------------------------------------------------------------------------| 
b|----------------------------------------------------------------------------| 
F#|---------------------------------------------------------------------------| 
B|----------------------------------------------------------------------------| 

C#|-4---------6-------6--4---------6--------6--4-(LR)-------------------------| 
G#|----4-4-------4-4--------4-4-------4--4------------------------------------| 
E|----------------------------------------------------------------------------| 
b|----------------------------------------------------------------------------| 
F#|---------------------------------------------------------------------------| 
B|----------------------------------------------------------------------------| 

Guitar 1 
C#|---------------------------------------------------------------------------| 
G#|---------------------------------------------------------------------------| 
E|----------------------------------------------------------------------------| 
b|-1----------------------------11--------------------------------------------| 
F#|1-(x16)----------------------11-(LR)---------------------------------------| 
B|-1----------------------------11--------------------------------------------| 

C#|---------------------------------------------------------------------------| 
G#|---------------------------------------------------------------------------| 
E|----------------------------------------------------------------------------| 
b|-6--------1--------3--------11-------10-------------------------------------| 
F#|6-(x16)--1-(x16)--3-(x16)--11-(x14)-10-------------------------------------| 
B|-6--------1--------3--------11-------10-------------------------------------| 

C#|---------------------------------------------------------------------------| 
G#|---------------------------------------------------------------------------| 
E|----------------------------------------------------------------------------| 
b|-6-------1-------3-------11------10-----------------------------------------| 
F#|6-(x8)--1-(x8)--3-(x8)--11-(x7)-10-----------------------------------------| 
B|-6-------1-------3-------11------10-----------------------------------------| 

C#|---------------------------------------------------------------------------| 
G#|---------------------------------------------------------------------------| 
E|----------------------------------------------------------------------------| 
b|-6-------1-------3-------11-------------------------------------------------| 
F#|6-(x8)--1-(x8)--3-(x8)--11-(x4)--------------------------------------------| 
B|-6-------1-------3-------11-------------------------------------------------| 

C#|---------------------------------------------------------------------------| 
G#|---------------------------------------------------------------------------| 
E|----------------------------------------------------------------------------| 
b|-6-------1-------3-------11------\10----------------------------------------| 
F#|6-(x8)--1-(x8)--3-(x8)--11-(x7)-\10----------------------------------------| 
B|-6-------1-------3-------11------\10----------------------------------------| 

C#|---------------------------------------------------------------------------| 
G#|---------------------------------------------------------------------------| 
E|----------------------------------------------------------------------------| 
b|-6-------1-------3-------11------\10----6-----------------------------------| 
F#|6-(x8)--1-(x8)--3-(x8)--11-(x7)-\10----6-(LR)------------------------------| 
B|-6-------1-------3-------11------\10----6-----------------------------------| 
And finish by making a mute slide down your fretboard 
************************************ 

| /   slide up 
| \   slide down 
| x   Mute note 


************************************ 
		  

See also:

tabs Placebo - Without you I'm Nothing tabs Kelly Clarkson - Since u been gone tabs Maroon 5 - She will be loved (intro) tabs Cyndi Lauper - Time After Time tabs Pink - Who knew tabs Black Eyed Peas - My humps
e-chords

Other versions:

tabs Thousand Foot Krutch - Searchlight
auto scroll beats size up size down change color hide chords drawings
tab show chords e-chords YouTube Clip e-chords hide all tabs e-chords go to top tab

share