Thousand Foot Krutch

Like A Machine

Thousand Foot Krutch

tabs

by  JOV-CORREA

save to print version add songbook text version e-mail correct tuner
chordsukulelecavacokeyboardtabbassdrumsharmonicaflute Guitar Pro
close

there isn't a video lesson for this song

chords

Like A Machine

	  		

Tuning: Drop B 

Verse I(0:00-0:12)(x2) 
C#|--------------------------------------------------------------------------| 
G#|--------------------------------------------------------------------------| 
E|---------------------------------------------------------------------------| 
b|--0--0-3-0--0--0-3-0--0--0-3-0--0-3-0--0--0-3-0--0-3-0-3-------------------| 
F#|-0--0-3-0--0--0-3-0--0--0-3-0--0-3-0--0--0-3-0--0-3-0-3-------------------| 
B|--0--0-3-0--0--0-3-0--0--0-3-0--0-3-0--0--0-3-0--0-3-0-3-------------------| 
(Palm-mute all the chords above) 

Pre-Chorus I(0:12-0:49) 
C#|--------------------------------------------------------------------------| 
G#|--------------------------------------------------------------------------| 
E|---------------------------------------------------------------------------| 
b|--0--0-3-0--0--0-3-0--0--0-3-0--0-3-0--0--0-3-0--0-3-0-3-------------------| 
F#|-0--0-3-0--0--0-3-0--0--0-3-0--0-3-0--0--0-3-0--0-3-0-3-------------------| 
B|--0--0-3-0--0--0-3-0--0--0-3-0--0-3-0--0--0-3-0--0-3-0-3-------------------| 
(Palm-mute all the chords above) 

C#|--------------------------------------------------------------------------| 
G#|--------------------------------------------------------------------------| 
E|---------------------------------------------------------------------------| 
b|--0--0-3-0--0--0-3-0--0--0-3-0--0-3-0--0--0-3-0----------------------------| 
F#|-0--0-3-0--0--0-3-0--0--0-3-0--0-3-0--0--0-3-0----------------------------| 
B|--0--0-3-0--0--0-3-0--0--0-3-0--0-3-0--0--0-3-0----------------------------| 
(Palm-mute all the chords above) 

C#|--------------------------------------------------------------------------| 
G#|--------------------------------------------------------------------------| 
E|---------------------------------------------------------------------------| 
b|--0--0-3-0--0--0-3-0--0--0-3-0--0-3-0--0--0-3-0--0-3-0-3-------------------| 
F#|-0--0-3-0--0--0-3-0--0--0-3-0--0-3-0--0--0-3-0--0-3-0-3-------------------| 
B|--0--0-3-0--0--0-3-0--0--0-3-0--0-3-0--0--0-3-0--0-3-0-3-------------------| 

C#|--------------------------------------------------------------------------| 
G#|--------------------------------------------------------------------------| 
E|---------------------------------------------------------------------------| 
b|--0--0-3-0--0--0-3-0--0--0-3-0--0-3-0--0--0-3-0--0-3-0-3-------------------| 
F#|-0--0-3-0--0--0-3-0--0--0-3-0--0-3-0--0--0-3-0--0-3-0-3-------------------| 
B|--0--0-3-0--0--0-3-0--0--0-3-0--0-3-0--0--0-3-0--0-3-0-3-------------------| 

C#|--------------------------------------------------------------------------| 
G#|--------------------------------------------------------------------------| 
E|---------------------------------------------------------------------------| 
b|--0--0-3-0--0--0-3-0--0--0-3-0--0-3-0--0--0-3-0--0-3-0-3-------------------| 
F#|-0--0-3-0--0--0-3-0--0--0-3-0--0-3-0--0--0-3-0--0-3-0-3-------------------| 
B|--0--0-3-0--0--0-3-0--0--0-3-0--0-3-0--0--0-3-0--0-3-0-3-------------------| 

C#|--------------------------------------------------------------------------| 
G#|--------------------------------------------------------------------------| 
E|-------------------------------------------------7-7-7---------------------| 
b|--0--0-3-0--0--0-3-0--0--0-3-0--0-3-0--0--0-3-0--7-7-7---------------------| 
F#|-0--0-3-0--0--0-3-0--0--0-3-0--0-3-0--0--0-3-0--5-5-5---------------------| 
B|--0--0-3-0--0--0-3-0--0--0-3-0--0-3-0--0--0-3-0----------------------------| 

Chorus I(0:49-1:16) 
C#|--------------------------------------------------------------------------| 
G#|--------------------------------------------------------------------------| 
E|---------------------------------------------------------------------------| 
b|--0---6-----0-0--6-----x-x-x-3---0-----3-3--0--x-0-------------------------| 
F#|-0---6-----0-0--6-----x-x-x-3---0-----3-3--0--x-0-------------------------| 
B|--0---6-----0-0--6-----x-x-x-3---0-----3-3--0--x-0-------------------------| 
                                                 
C#|--------------------------------------------------------------------------| 
G#|--------------------------------------------------------------------------| 
E|-----------------------------------------------7-7-7-----------------------| 
b|--0---6-----0-0--6-----x-x-x-3---0-----3-3--0--7-7-7-----------------------| 
F#|-0---6-----0-0--6-----x-x-x-3---0-----3-3--0--5-5-5-----------------------| 
B|--0---6-----0-0--6-----x-x-x-3---0-----3-3--0------------------------------| 

C#|--------------------------------------------------------------------------| 
G#|--------------------------------------------------------------------------| 
E|---------------------------------------------------------------------------| 
b|--0---6-----0-0--6-----x-x-x-3---0-----3-3--0--x-0-------------------------| 
F#|-0---6-----0-0--6-----x-x-x-3---0-----3-3--0--x-0-------------------------| 
B|--0---6-----0-0--6-----x-x-x-3---0-----3-3--0--x-0-------------------------| 
                                                 
C#|--------------------------------------------------------------------------| 
G#|--------------------------------------------------------------------------| 
E|---------------------------------------------------------------------------| 
b|--0---6-----0-0--6-----x-x-x-3---0-----3-3--0------------------------------| 
F#|-0---6-----0-0--6-----x-x-x-3---0-----3-3--0------------------------------| 
B|--0---6-----0-0--6-----x-x-x-3---0-----3-3--0------------------------------| 
                                                
Verse II(1:16-1:27)(Same as Verse I) 

Pre-Chorus II(1:27-2:04) 
C#|--------------------------------------------------------------------------| 
G#|--------------------------------------------------------------------------| 
E|---------------------------------------------------------------------------| 
b|--0--0-3-0--0--0-3-0--0--0-3-0--0-3-0--0--0-3-0--0-3-0-3-------------------| 
F#|-0--0-3-0--0--0-3-0--0--0-3-0--0-3-0--0--0-3-0--0-3-0-3-------------------| 
B|--0--0-3-0--0--0-3-0--0--0-3-0--0-3-0--0--0-3-0--0-3-0-3-------------------| 
(Palm-mute all the chords above) 

C#|--------------------------------------------------------------------------| 
G#|--------------------------------------------------------------------------| 
E|---------------------------------------------------------------------------| 
b|--0--0-3-0--0--0-3-0--0--0-3-0--0-3-0--0--0-3-0--x-x-x-x-------------------| 
F#|-0--0-3-0--0--0-3-0--0--0-3-0--0-3-0--0--0-3-0--x-x-x-x-------------------| 
B|--0--0-3-0--0--0-3-0--0--0-3-0--0-3-0--0--0-3-0--x-x-x-x-------------------| 
(Palm-mute all the chords above)(Note: The last four muted chords are the only things 
that make Pre-Chorus II different from Pre-Chorus I) 

C#|--------------------------------------------------------------------------| 
G#|--------------------------------------------------------------------------| 
E|---------------------------------------------------------------------------| 
b|--0--0-3-0--0--0-3-0--0--0-3-0--0-3-0--0--0-3-0--0-3-0-3-------------------| 
F#|-0--0-3-0--0--0-3-0--0--0-3-0--0-3-0--0--0-3-0--0-3-0-3-------------------| 
B|--0--0-3-0--0--0-3-0--0--0-3-0--0-3-0--0--0-3-0--0-3-0-3-------------------| 

C#|--------------------------------------------------------------------------| 
G#|--------------------------------------------------------------------------| 
E|---------------------------------------------------------------------------| 
b|--0--0-3-0--0--0-3-0--0--0-3-0--0-3-0--0--0-3-0--0-3-0-3-------------------| 
F#|-0--0-3-0--0--0-3-0--0--0-3-0--0-3-0--0--0-3-0--0-3-0-3-------------------| 
B|--0--0-3-0--0--0-3-0--0--0-3-0--0-3-0--0--0-3-0--0-3-0-3-------------------| 

C#|--------------------------------------------------------------------------| 
G#|--------------------------------------------------------------------------| 
E|---------------------------------------------------------------------------| 
b|--0--0-3-0--0--0-3-0--0--0-3-0--0-3-0--0--0-3-0--0-3-0-3-------------------| 
F#|-0--0-3-0--0--0-3-0--0--0-3-0--0-3-0--0--0-3-0--0-3-0-3-------------------| 
B|--0--0-3-0--0--0-3-0--0--0-3-0--0-3-0--0--0-3-0--0-3-0-3-------------------| 

C#|--------------------------------------------------------------------------| 
G#|--------------------------------------------------------------------------| 
E|-------------------------------------------------7-7-7---------------------| 
b|--0--0-3-0--0--0-3-0--0--0-3-0--0-3-0--0--0-3-0--7-7-7---------------------| 
F#|-0--0-3-0--0--0-3-0--0--0-3-0--0-3-0--0--0-3-0--5-5-5---------------------| 
B|--0--0-3-0--0--0-3-0--0--0-3-0--0-3-0--0--0-3-0----------------------------| 

Chorus II(2:04-2:28) 
C#|--------------------------------------------------------------------------| 
G#|--------------------------------------------------------------------------| 
E|---------------------------------------------------------------------------| 
b|--0---6-----0-0--6-----x-x-x-3---0-----3-3--0--x-0-------------------------| 
F#|-0---6-----0-0--6-----x-x-x-3---0-----3-3--0--x-0-------------------------| 
B|--0---6-----0-0--6-----x-x-x-3---0-----3-3--0--x-0-------------------------| 
                                                 
C#|--------------------------------------------------------------------------| 
G#|--------------------------------------------------------------------------| 
E|-----------------------------------------------7-7-7-----------------------| 
b|--0---6-----0-0--6-----x-x-x-3---0-----3-3--0--7-7-7-----------------------| 
F#|-0---6-----0-0--6-----x-x-x-3---0-----3-3--0--5-5-5-----------------------| 
B|--0---6-----0-0--6-----x-x-x-3---0-----3-3--0------------------------------| 

C#|--------------------------------------------------------------------------| 
G#|--------------------------------------------------------------------------| 
E|---------------------------------------------------------------------------| 
b|--0---6-----0-0--6-----x-x-x-3---0-----3-3--0--x-0-------------------------| 
F#|-0---6-----0-0--6-----x-x-x-3---0-----3-3--0--x-0-------------------------| 
B|--0---6-----0-0--6-----x-x-x-3---0-----3-3--0--x-0-------------------------| 
                                                 
C#|--------------------------------------------------------------------------| 
G#|--------------------------------------------------------------------------| 
E|---------------------------------------------------------------------------| 
b|--0---6-----0-0--6-----x-x-x-3---0-----3-3--0--x-0-------------------------| 
F#|-0---6-----0-0--6-----x-x-x-3---0-----3-3--0--x-0-------------------------| 
B|--0---6-----0-0--6-----x-x-x-3---0-----3-3--0--x-0-------------------------| 

Bridge Pt.1(2:28-2:52)(x2) 
C#|--------------------------------------------------------------------------| 
G#|--------------------------------------------------------------------------| 
E|--10-10-10-10----10-10-10-10-----10-10-10-10-9-9-9-9----9-9-9-9------------| 
b|--10-10-10-10----10-10-10-10-----10-10-10-10-9-9-9-9----9-9-9-9------------| 
F#|-8--8--8--8------8--8--8--8------8--8--8--8-7-7-7-7----7-7-7-7------------| 
B|---------------------------------------------------------------------------| 

C#|--------------------------------------------------------------------------| 
G#|--------------------------------------------------------------------------| 
E|--9-9-9-9-7-7-7-7----7-7-7-7--------------7-7-7-7----7-7-7-7---------------| 
b|--9-9-9-9-7-7-7-7----7-7-7-7----x-0-------7-7-7-7----7-7-7-7----x-0--------| 
F#|-7-7-7-7-5-5-5-5----5-5-5-5----x-0-------5-5-5-5----5-5-5-5----x-0--------| 
B|--------------------------------x-0-----------------------------x-0--------| 

Bridge Pt.2(2:52-3:16) 
C#|--------------------------------------------------------------------------| 
G#|--------------------------------------------------------------------------| 
E|---------------------------------------------------------------------------| 
b|--0---6----------------x-x-x-3---0-----------------------------------------| 
F#|-0---6----------------x-x-x-3---0-----------------------------------------| 
B|--0---6----------------x-x-x-3---0-----------------------------------------| 
(Palm-mute all chords above)  
                                         
C#|--------------------------------------------------------------------------| 
G#|--------------------------------------------------------------------------| 
E|---------------------------------------------------------------------------| 
b|--0---6----------------x-x-x-3---0-----x-x-x--x-x-x------------------------| 
F#|-0---6----------------x-x-x-3---0-----x-x-x--x-x-x------------------------| 
B|--0---6----------------x-x-x-3---0-----x-x-x--x-x-x------------------------| 
(Palm-mute all chords above)         
                                    
C#|--------------------------------------------------------------------------| 
G#|--------------------------------------------------------------------------| 
E|---------------------------------------------------------------------------| 
b|--0---6----------------x-x-x-3---0-----------------------------------------| 
F#|-0---6----------------x-x-x-3---0-----------------------------------------| 
B|--0---6----------------x-x-x-3---0-----------------------------------------| 
(Palm-mute all chords above)            
                               
C#|--------------------------------------------------------------------------| 
G#|--------------------------------------------------------------------------| 
E|---------------------------------------------7-7-7-7-7---------------------| 
b|--0---6----------------x-x-x-3---0-----x-x-x-7-7-7-7-7---------------------| 
F#|-0---6----------------x-x-x-3---0-----x-x-x-5-5-5-5-5---------------------| 
B|--0---6----------------x-x-x-3---0-----x-x-x-------------------------------| 
(Palm-mute all chords above except the last five "5-7-7" chords)    
                                      
Chorus III(3:16-3:43) 
C#|--------------------------------------------------------------------------| 
G#|--------------------------------------------------------------------------| 
E|---------------------------------------------------------------------------| 
b|--0---6-----0-0--6-----x-x-x-3---0-----3-3--0--x-0-------------------------| 
F#|-0---6-----0-0--6-----x-x-x-3---0-----3-3--0--x-0-------------------------| 
B|--0---6-----0-0--6-----x-x-x-3---0-----3-3--0--x-0-------------------------| 
                                                 
C#|--------------------------------------------------------------------------| 
G#|--------------------------------------------------------------------------| 
E|-----------------------------------------------7-7-7-----------------------| 
b|--0---6-----0-0--6-----x-x-x-3---0-----3-3--0--7-7-7-----------------------| 
F#|-0---6-----0-0--6-----x-x-x-3---0-----3-3--0--5-5-5-----------------------| 
B|--0---6-----0-0--6-----x-x-x-3---0-----3-3--0------------------------------| 

C#|--------------------------------------------------------------------------| 
G#|--------------------------------------------------------------------------| 
E|---------------------------------------------------------------------------| 
b|--0---6-----0-0--6-----x-x-x-3---0-----3-3--0--x-0-------------------------| 
F#|-0---6-----0-0--6-----x-x-x-3---0-----3-3--0--x-0-------------------------| 
B|--0---6-----0-0--6-----x-x-x-3---0-----3-3--0--x-0-------------------------| 
                                                 
C#|--------------------------------------------------------------------------| 
G#|--------------------------------------------------------------------------| 
E|---------------------------------------------------------------------------| 
b|--0---6-----0-0--6-----x-x-x-3---0-----3-3--0--x-x-x-x---------------------| 
F#|-0---6-----0-0--6-----x-x-x-3---0-----3-3--0--x-x-x-x---------------------| 
B|--0---6-----0-0--6-----x-x-x-3---0-----3-3--0--x-x-x-x---------------------| 
                                            
************************************ 

| /   slide up 
| \   slide down 
| x   Mute note 

************************************ 
		  

See also:

tabs Placebo - Without you I'm Nothing tabs Kelly Clarkson - Since u been gone tabs Maroon 5 - She will be loved (intro) tabs Cyndi Lauper - Time After Time tabs Pink - Who knew tabs Black Eyed Peas - My humps
e-chords

Other versions:

tabs Thousand Foot Krutch - Like A Machine tabs Freaky Age - Like A Machine
auto scroll beats size up size down change color hide chords drawings
tab show chords e-chords YouTube Clip e-chords hide all tabs e-chords go to top tab

share