Thousand Foot Krutch

Incomplete

Thousand Foot Krutch

tabs

by  GUSTSILVA

save to print version add songbook text version e-mail correct tuner
chordsukulelecavacokeyboardtabbassdrumsharmonicaflute Guitar Pro
close

there isn't a video lesson for this song

chords

Incomplete

	  		
Guitar 1 


verse 1 
D|-----------------------------------------------------------------------------------------------------------| 
A|-----------------------------------------------------------------------------------------------------------| 
F|-----------------------------------------------------------------------------------------------------------| 
C|---3-------------3-------------3------------3------5------3-------------3-------------3-------------3----5-| 
G|-----------------------------------------------------------------------------------------------------------| 
C|-0---0--0-0--0-0---0--0-0--0-0---0--0-0--0-0----0-0---0-0---0--0-0--0-0---0--0-0--0-0---0--0-0--0-0---0-0--| 

D|----------------------------------------------------------------------------------------------------------| 
A|----------------------------------------------------------------------------------------------------------| 
F|----------------------------------------------------------------------------------------------------------| 
C|---3-------------3------------3------------3------5------3-------------3-------------3-------------3----5-| 
G|----------------------------------------------------------------------------------------------------------| 
C|0-0---0--0-0--0-0--0--0-0--0-0--0--0-0--0-0----0-0---0-0---0--0-0--0-0---0--0-0--0-0---0--0-0--0-0---0-0--| 

D|-----------------------------------------------------| 
A|-----------------------------------------------------| 
F|-----------------------------------------------------| 
C|---3-------------3-------------3------------3------5-| 
G|-----------------------------------------------------| 
C|-0---0--0-0--0-0---0--0-0--0-0---0--0-0--0-0----0-0--| 

Pre-Chorus 1 
D|-----------------------------------------------------------------------------------------------------| 
A|-----------------------------------------------------------------------------------------------------| 
F|-----------------------------------------------------------------------------------------------------| 
C|-0-0-3-0-3-4-5-0--0-3-0-6-5-3--0-3-0-3-4-5-0-0-3-5--0-3-0-3-4-5-0--0-3-0-6-5-3--0-3-0-3-4-5-0--0-3-0-| 
G|-0-0-3-0-3-4-5-0--0-3-0-6-5-3--0-3-0-3-4-5-0-0-3-5--0-3-0-3-4-5-0--0-3-0-6-5-3--0-3-0-3-4-5-0--0-3-0-| 
C|-0-0-3-0-3-4-5-0--0-3-0-6-5-3--0-3-0-3-4-5-0-0-3-5--0-3-0-3-4-5-0--0-3-0-6-5-3--0-3-0-3-4-5-0--0-3-0-| 

Chorus 1 
D|--------------------------------------------------------------------------------------------------------| 
A|--------------------------------------------------------------------------------------------------------| 
F|--------------------------------------------------------------------------------------------------------| 
C|-3-3-3-3-3/10-10-10-10-10-12-0-0-0-0-0-8-8-8-8-8-7--3-3-3-3-3/10-10-10-10-10-12-0-0-0-0-0-8-8-8-8-8-8-8-| 
G|-3-3-3-3-3/10-10-10-10-10-12-0-0-0-0-0-8-8-8-8-8-7--3-3-3-3-3/10-10-10-10-10-12-0-0-0-0-0-8-8-8-8-8-8-8-| 
C|-3-3-3-3-3/10-10-10-10-10-12-0-0-0-0-0-8-8-8-8-8-7--3-3-3-3-3/10-10-10-10-10-12-0-0-0-0-0-8-8-8-8-8-8-8-| 

verse 2  
D|-----------------------------------------------------------------------------------------------------------| 
A|-----------------------------------------------------------------------------------------------------------| 
F|-----------------------------------------------------------------------------------------------------------| 
C|---3-------------3-------------3------------3------5------3-------------3-------------3-------------3----5-| 
G|-----------------------------------------------------------------------------------------------------------| 
C|-0---0--0-0--0-0---0--0-0--0-0---0--0-0--0-0----0-0---0-0---0--0-0--0-0---0--0-0--0-0---0--0-0--0-0---0-0--| 

D|----------------------------------------------------------------------------------------------------------| 
A|----------------------------------------------------------------------------------------------------------| 
F|----------------------------------------------------------------------------------------------------------| 
C|---3-------------3------------3------------3------5------3-------------3-------------3-------------3----5-| 
G|----------------------------------------------------------------------------------------------------------| 
C|0-0---0--0-0--0-0--0--0-0--0-0--0--0-0--0-0----0-0---0-0---0--0-0--0-0---0--0-0--0-0---0--0-0--0-0---0-0--| 

D|-----------------------------------------------------| 
A|-----------------------------------------------------| 
F|-----------------------------------------------------| 
C|---3-------------3-------------3------------3------5-| 
G|-----------------------------------------------------| 
C|-0---0--0-0--0-0---0--0-0--0-0---0--0-0--0-0----0-0--| 

Pre-Chorus 2 
D|-----------------------------------------------------------------------------------------------------| 
A|-----------------------------------------------------------------------------------------------------| 
F|-----------------------------------------------------------------------------------------------------| 
C|-0-0-3-0-3-4-5-0--0-3-0-6-5-3--0-3-0-3-4-5-0-0-3-5--0-3-0-3-4-5-0--0-3-0-6-5-3--0-3-0-3-4-5-0--0-3-0-| 
G|-0-0-3-0-3-4-5-0--0-3-0-6-5-3--0-3-0-3-4-5-0-0-3-5--0-3-0-3-4-5-0--0-3-0-6-5-3--0-3-0-3-4-5-0--0-3-0-| 
C|-0-0-3-0-3-4-5-0--0-3-0-6-5-3--0-3-0-3-4-5-0-0-3-5--0-3-0-3-4-5-0--0-3-0-6-5-3--0-3-0-3-4-5-0--0-3-0-| 

Chorus 2 
D|----------------------------------------------------------------------------------------------------------| 
A|----------------------------------------------------------------------------------------------------------| 
F|----------------------------------------------------------------------------------------------------------| 
C|-3-3-3-3-3/10-10-10-10-10-12-0-0-0-0-0-8-8-8-8-8-7--3-3-3-3-3/10-10-10-10-10-12-0-0-0-0-0-8-8-8-8-8-8-8-7-| 
G|-3-3-3-3-3/10-10-10-10-10-12-0-0-0-0-0-8-8-8-8-8-7--3-3-3-3-3/10-10-10-10-10-12-0-0-0-0-0-8-8-8-8-8-8-8-7-| 
C|-3-3-3-3-3/10-10-10-10-10-12-0-0-0-0-0-8-8-8-8-8-7--3-3-3-3-3/10-10-10-10-10-12-0-0-0-0-0-8-8-8-8-8-8-8-7-| 

Bridge 
D|-----------------------------------------------------------------------------------------------------------| 
A|-----------------------------------------------------------------------------------------------------------| 
F|-----------------------------------------------------------------------------------------------------------| 
C|-12-12-12-10-10-10--3-3-3--5-5-5--8-8-8-8-8/10-10-10--12-12-12--10-10-10--3-3-3--5-5-5--8-8-8-8-8/10-10-10-| 
G|-12-12-12-10-10-10--3-3-3--5-5-5--8-8-8-8-8/10-10-10--12-12-12--10-10-10--3-3-3--5-5-5--8-8-8-8-8/10-10-10-| 
C|-12-12-12-10-10-10--3-3-3--5-5-5--8-8-8-8-8/10-10-10--12-12-12--10-10-10--3-3-3--5-5-5--8-8-8-8-8/10-10-10-| 

D|------------------------------------------------------------------------------------------| 
A|------------------------------------------------------------------------------------------| 
F|------------------------------------------------------------------------------------------| 
C|-12-12-12-10-10-10--3-3-3--5-5-5--8-8-8-8----8/10-10-10--12-12-12--10-10-10--3-3-3--5-5-5-| 
G|-12-12-12-10-10-10--3-3-3--5-5-5--8-8-8-8----8/10-10-10--12-12-12--10-10-10--3-3-3--5-5-5-| 
C|-12-12-12-10-10-10--3-3-3--5-5-5--8-8-x-x--x-8/10-10-10--12-12-12--10-10-10--3-3-3--5-5-5-| 

D|-----------------------------------| 
A|-----------------------------------| 
F|-----------------------------------| 
C|-8-8-8-8-8/10-10-10-5-5-5-5-5-5-5\-| 
G|-8-8-8-8-8/10-10-10-5-5-5-5-5-5-5\-| 
C|-8-8-8-8-8/10-10-10-5-5-5-5-5-5-5\-| 

Doesn't play for Chorus 3 

Chorus 4 
D|-------------------------------------------------------------------------------------| 
A|-------------------------------------------------------------------------------------| 
F|-------------------------------------------------------------------------------------| 
C|-3-3-3-3-3/10-10-10-10-10-12-0-0-0-0-0-8-8-8-8-8-7--3-3-3-3-3/10-10-10-10-10-3-2-----| 
G|-3-3-3-3-3/10-10-10-10-10-12-0-0-0-0-0-8-8-8-8-8-7--3-3-3-3-3/10-10-10-10-10-----3-5-| 
C|-3-3-3-3-3/10-10-10-10-10-12-0-0-0-0-0-8-8-8-8-8-7--3-3-3-3-3/10-10-10-10-10---------| 

D|---------------------------| 
A|---------------------------| 
F|---------------------------| 
C|-0-0-0-0-0-8-8-8-8-8-8-8-7-| 
G|-0-0-0-0-0-8-8-8-8-8-8-8-7-| 
C|-0-0-0-0-0-8-8-8-8-8-8-8-7-| 

Outro 
D|------------------------------------------------------------------------------------------------| 
A|------------------------------------------------------------------------------------------------| 
F|------------------------------------------------------------------------------------------------| 
C|-3-3-3-3-3-3-3-3-3/10-10-10-10-10-10----------0-0-0-0-0-0-0-0--8-8-8-8-8-8-8-7--3~| 
G|-3-3-3-3-3-3-3-3-3/10-10-10-10-10-10-----3-5--0-0-0-0-0-0-0-0--8-8-8-8-8-8-8-7--3~| 
C|-3-3-3-3-3-3-3-3-3/10-10-10-10-10-10-3-5------0-0-0-0-0-0-0-0--8-8-8-8-8-8-8-7--3~| 



Guitar 2 

Nothing For verse 1 or Pre-Chorus 

Chorus 1 
D|-6-5\1-1/6-5-0/8-1-6-5-1/13-13-13-13-13-13-13-13--6-5\1-1/6-5-0/8-1-6-5-1/13-13-13-13-13-13-13-13-| 
A|-6-6\1-1/6-6-1/6-1--------------------------------6-6\1-1/6-6-1/6-1-------------------------------| 
F|--------------------------------------------------------------------------------------------------| 
C|--------------------------------------------------------------------------------------------------| 
G|--------------------------------------------------------------------------------------------------| 
C|--------------------------------------------------------------------------------------------------| 

D|-6-5\1-1/6-5-0/8-1-6-5-1/13-13-13-13-13-13-13-13--6-5\1-1/6-5-0/8-1-6-5-1/13-13-13-13-13-13-13-13-| 
A|-6-6\1-1/6-6-1/6-1--------------------------------6-6\1-1/6-6-1/6-1-------------------------------| 
F|--------------------------------------------------------------------------------------------------| 
C|--------------------------------------------------------------------------------------------------| 
G|--------------------------------------------------------------------------------------------------| 
C|--------------------------------------------------------------------------------------------------| 


verse 2 (Let notes ring) 
D|--8--7--6--5--8--7--6--5--8--7--6--5--8--7--6--5-| 
A|--8--8--8--6--8--8--8--6--8--8--8--6--8--8--8--6-| 
F|--------7--7--------7--7--------7--7--------7--7-| 
C|-------------------------------------------------| 
G|-------------------------------------------------| 
C|-------------------------------------------------| 

Nothing for Pre-Chorus 2 

Chorus 2  
D|-6-5\1-1/6-5-0/8-1-6-5-1/13-13-13-13-13-13-13-13--6-5\1-1/6-5-0/8-1-6-5-1/13-13-13-13-13-13-13-13-| 
A|-6-6\1-1/6-6-1/6-1--------------------------------6-6\1-1/6-6-1/6-1-------------------------------| 
F|--------------------------------------------------------------------------------------------------| 
C|--------------------------------------------------------------------------------------------------| 
G|--------------------------------------------------------------------------------------------------| 
C|--------------------------------------------------------------------------------------------------| 

D|-6-5\1-1/6-5-0/8-1-6-5-1/13-13-13-13-13-13-13-13--6-5\1-1/6-5-0/8-1-6-5-1/13-13-13-13-13-13-13-13-| 
A|-6-6\1-1/6-6-1/6-1--------------------------------6-6\1-1/6-6-1/6-1-------------------------------| 
F|--------------------------------------------------------------------------------------------------| 
C|--------------------------------------------------------------------------------------------------| 
G|--------------------------------------------------------------------------------------------------| 
C|--------------------------------------------------------------------------------------------------| 

Bridge (Let notes ring) 
D|-1--0--1-----1--0---1----| 
A|-1--1--1--3--1--1---1--3-| 
F|----------3------------3-| 
C|-------0------------0----| 
G|----3-----1------3-----1-| 
C|-------------------------| 

Chorus 2  
D|-1-1-3-5-3-1-5-1--1-1-1--6-6-6-5--1-1-1--6-6-6-5--1-1-3-5-3-1-5-1--1-3-1-6-6-6-5--1-3-1-6-6-6-5-| 
A|------------------------------------------------------------------------------------------------| 
F|------------------------------------------------------------------------------------------------| 
C|------------------------------------------------------------------------------------------------| 
G|------------------------------------------------------------------------------------------------| 
C|------------------------------------------------------------------------------------------------| 

D|-1-1-3-5-3-1-5-1--1-1-1--6-6-6-5--1-1-1--6-6-6-5--1-1-3-5-3-1-5-1--1-3-1-6-6-6-5--1-3-1-6-6-6-5-| 
A|------------------------------------------------------------------------------------------------| 
F|------------------------------------------------------------------------------------------------| 
C|------------------------------------------------------------------------------------------------| 
G|------------------------------------------------------------------------------------------------| 
C|------------------------------------------------------------------------------------------------| 

Outro 
D|-1-1-3-5-3-1-5-1--1-1-1--6-6-6-5--1-1-1--6-6-6-5--1-1-3-5-3-1-5-1--1-3-1-6-6-6-5--1-3-1-6-6-6-5-1~| 
A|--------------------------------------------------------------------------------------------------| 
F|--------------------------------------------------------------------------------------------------| 
C|--------------------------------------------------------------------------------------------------| 
G|--------------------------------------------------------------------------------------------------| 
C|--------------------------------------------------------------------------------------------------| 
		  

See also:

tabs Placebo - Without you I'm Nothing tabs Kelly Clarkson - Since u been gone tabs Maroon 5 - She will be loved (intro) tabs Cyndi Lauper - Time After Time tabs Pink - Who knew tabs Black Eyed Peas - My humps
e-chords

Other versions:

tabs Thousand Foot Krutch - Incomplete
auto scroll beats size up size down change color hide chords drawings
tab show chords e-chords YouTube Clip e-chords hide all tabs e-chords go to top tab

share