Thousand Foot Krutch

Glow

Thousand Foot Krutch

tabs Advanced advanced

by  ADALGOMES

save to print version add songbook text version e-mail correct tuner
chordsukulelecavacokeyboardtabbassdrumsharmonicaflute Guitar Pro
close

there isn't a video lesson for this song

chords

Glow

Key:  D More
Glow Key AA
Glow Key A#A#
Glow Key BB
Glow Key CC(one step down)
Glow Key C#C#(half step down)
Glow Key DD(original key)
Glow Key D#D#(half step up)
Glow Key EE(one step up)
Glow Key FF
Glow Key F#F#
Glow Key GG
Glow Key G#G#
	  		 

Intro(0:00-0:08) 
Guitar 1 
e|---------------------------------------------------------------------------| 
B|---------------------------------------------------------------------------| 
G|-----9-----9--------7-----7--------7-----7---------7------7----------------| 
d|---7-----7--------7-----7--------7-----7---------9------9------------------| 
A|-------------------------------8-----8------8/10-----10------10------------| 
D|-7-----7------7-5-----5------5---------------------------------------------| 

Guitar 2 
e|---------------------------------------------------------------------------| 
B|---------------------------------------------------------------------------| 
G|-------------------------------------------------4-------------------------| 
d|--------------------------------------------5------7---5-------------------| 
A|--------------------------------------------5------------------------------| 
D|---------------------------------------------------------------------------| 

Verse I(0:08-0:45) 
Guitar 1 (x4) 
e|---------------------------------------------------------------------------| 
B|---------------------------------------------------------------------------| 
G|-----9-----9--------7-----7--------7-----7---------7------7----------------| 
d|---7-----7--------7-----7--------7-----7---------9------9------------------| 
A|-------------------------------8-----8------8/10-----10------10------------| 
D|-7-----7------7-5-----5------5---------------------------------------------| 

Guitar 2 
e|---------------------------------------------------------------------------| 
B|---------------------------------------------------------------------------| 
G|-------------------------------------------------4-------------------------| 
d|--------------------------------------------5------7-5b--------------------| 
A|--------------------------------------------5--------5b--------------------| 
D|---------------------------------------------------------------------------| 

e|---------------------------------------------------------------------------| 
B|---------------------------------------------------------------------------| 
G|-------------------------------------------------4-------------------------| 
d|--------------------------------------------5------7-5b--------------------| 
A|--------------------------------------------5--------5b--------------------| 
D|---------------------------------------------------------------------------| 

e|---------------------------------------------------------------------------| 
B|---------------------------------------------------------------------------| 
G|-------------------------------9b------------------------------------------| 
d|------------------------------------------------------9b-------------------| 
A|---------------------------------------------------------------------------| 
D|---------------------------------------------------------------------------| 

e|---------------------------------------------------------------------------| 
B|---------------------------------------------------------------------------| 
G|-----------------------------------------------4---------------------------| 
d|-------------------------------3---2-----/5------7---5---------------------| 
A|---------------------------------------3-/5--------------------------------| 
D|---------------------------------------------------------------------------| 

Pre-Chorus I(0:45-1:03) 
Guitar 1 
e|---------------------------------------------------------------------------| 
B|-----3-----3---------------------------------------------------------------| 
G|---2-----2----------7-----7--------9-----9--------7-----7------------------| 
d|------------------7-----7--------7-----7--------7-----7--------------------| 
A|-3-----3------3------------------------------------------------------------| 
D|----------------5-----5------5-7-----7------7-5-----5------5---------------| 

e|---------------------------------------------------------------------------| 
B|-------------------------------------10-----10-----------------------------| 
G|-----10-----10--------7-----7-------------------------7-----7--------------| 
d|---7------7---------7-----7--------7------7---------7-----7----------------| 
A|---------------------------------------------------------------------------| 
D|-7------7-------7-5-----5------5-7------7-------7-5-----5------5-----------| 

Guitar 2 
e|---------------------------------------------------------------------------| 
B|-8-------------------------------------------------------------------------| 
G|----------------------------------9----------------------------------------| 
d|---------------------------------------------------------------------------| 
A|---------------------------------------------------------------------------| 
D|---------------------------------------------------------------------------| 

e|---------------------------------------------------------------------------| 
B|-----------------------------------10----10------8-------------------------| 
G|----------------------------------------------------5-4--------------------| 
d|--------------------------------------------------------7-5----------------| 
A|---------------------------------------------------------------------------| 
D|---------------------------------------------------------------------------| 

Chorus I(1:03-1:22) 
Guitar 1 
e|-------------------------10-------10-------10------------------------------| 
B|-13-------13-------13------------------------------------------------------| 
G|----12-------12-------12----12-------12-------12---------------------------| 
d|-------10-------10-------------10-------10---------------------------------| 
A|---------------------------------------------------------------------------| 
D|---------------------------------------------------------------------------| 

e|---------------------------------------------------------------------------| 
B|-13-------13-------13----------13-------13---------------------------------| 
G|----12-------12-------12----12-------12-------12---------------------------| 
d|-------10-------10-------10-------10-------10------------------------------| 
A|---------------------------------------------------------------------------| 
D|---------------------------------------------------------------------------| 

e|-------------------------10-------10-------10------------------------------| 
B|-13-------13-------13------------------------------------------------------| 
G|----12-------12-------12----12-------12-------12---------------------------| 
d|-------10-------10-------------10-------10---------------------------------| 
A|---------------------------------------------------------------------------| 
D|---------------------------------------------------------------------------| 

e|---------------------------------------------------------------------------| 
B|-----12-----12-----------13-------13---------------------------------------| 
G|---9------9------9----12-------12-------12---------------------------------| 
d|-9------9------9---10-------10-------10------------------------------------| 
A|---------------------------------------------------------------------------| 
D|---------------------------------------------------------------------------| 

Rhythm Guitar  
e|---------------------------------------------------------------------------| 
B|---------------------------------------------------------------------------| 
G|-5-------7-------2---------------5-------7---------------------------------| 
d|-5-(x8)--7-(x8)--2-(x8)--3-------5-(x8)--7-(x8)--2-------3-----------------| 
A|-3-------5-------0-------3-(x8)--3-------5-------2-(x8)--3-(x8)------------| 
D|-------------------------3-----------------------2-------3-----------------| 

Post-Chorus I(1:22-1:31) 
Guitar 1 
e|---------------------------------------------------------------------------| 
B|---------------------------------------------------------------------------| 
G|-----9-----9--------7-----7--------7-----7---------7------7----------------| 
d|---7-----7--------7-----7--------7-----7---------9------9------------------| 
A|-------------------------------8-----8------8/10-----10------10------------| 
D|-7-----7------7-5-----5------5---------------------------------------------| 

Guitar 2 
e|---------------------------------------------------------------------------| 
B|---------------------------------------------------------------------------| 
G|-------------------------------------------------4-------------------------| 
d|--------------------------------------------5------7---5-------------------| 
A|--------------------------------------------5------------------------------| 
D|---------------------------------------------------------------------------| 

Verse II(1:31-2:08)(Same for Guitar 1 as it is in Verse I) 
Guitar 1 
e|---------------------------------------------------------------------------| 
B|---------------------------------------------------------------------------| 
G|-------------------------------------------------4-------------------------| 
d|--------------------------------------------5------7-5b--------------------| 
A|--------------------------------------------5--------5b--------------------| 
D|---------------------------------------------------------------------------| 

e|---------------------------------------------------------------------------| 
B|---------------------------------------------------------------------------| 
G|-------------------------------------------------4-------------------------| 
d|--------------------------------------------5------7-5b--------------------| 
A|--------------------------------------------5--------5b--------------------| 
D|---------------------------------------------------------------------------| 

e|---------------------------------------------------------------------------| 
B|---------------------------------------------------------------------------| 
G|--------------------------------9b------9b--7b-----5-4b--------------------| 
d|---------------------------------------------------------------------------| 
A|---------------------------------------------------------------------------| 
D|---------------------------------------------------------------------------| 

e|---------------------------------------------------------------------------| 
B|---------------------------------------------------------------------------| 
G|---------------------------------------4b---5b--4b----5-4------------------| 
d|-----------------5----------------7b----------------------7-5--------------| 
A|-----------------5---------------------------------------------------------| 
D|---------------------------------------------------------------------------| 

Pre-Chorus II(2:08-2:26)(Same for Guitar 1 as it is in Pre-Chorus I) 
Guitar 2 
e|---------------------------------------------------------------------------| 
B|---------------------------------------------------------------------------| 
G|-5b--------------------------------------4--5--4---------------------------| 
d|------------------------------------7--------------------------------------| 
A|---------------------------------------------------------------------------| 
D|---------------------------------------------------------------------------| 

e|---------------------------------------------------------------------------| 
B|-----------------------------------10----10------8-------------------------| 
G|----------------------------------------------------5-4--------------------| 
d|--------------------------------------------------------7-5----------------| 
A|---------------------------------------------------------------------------| 
D|---------------------------------------------------------------------------| 

Chorus II(2:26-2:44)(Same as Chorus I) 

Chorus III(2:44-3:02)(Same as Chorus I) 

Outroduction(3:02-3:20) 
Guitar 2 
e|---------------------------------------------------------------------------| 
B|-10b--------13b---13b---8-\-4b---------------------------------------------| 
G|----------------------------------------5-4-5-4----------------------------| 
d|------------------------------------------------5---5b---------------------| 
A|---------------------------------------------------------------------------| 
D|---------------------------------------------------------------------------| 

************************************ 

| /   slide up 
| \   slide down 
| x   Mute note 
| b   Bend 

************************************ 
		  

See also:

tabs Kelly Clarkson - Because Of You tabs Gavin Degraw - Follow Through tabs Stevie Wonder - Isn't She Lovely tabs Amy Lee ft. Seether - Broken tabs My Chemical Romance - Thank You For The Venom tabs My Chemical Romance - I'm Not Okay (I Promise)
e-chords

Other versions:

tabs Coal Chamber - Glow tabs I See Stars - Glow tabs Thousand Foot Krutch - Glow tabs Moose Blood - Glow tabs Porches - Glow tabs Coal Chamber - Glow (ver. 2)
auto scroll beats size up size down change color hide chords drawings
tab show chords e-chords YouTube Clip e-chords hide all tabs e-chords go to top tab

share