Thousand Foot Krutch

Complicate You

Thousand Foot Krutch

tabs

by  PAULANTUNES

save to print version add songbook text version e-mail correct tuner
chordsukulelecavacokeyboardtabbassdrumsharmonicaflute Guitar Pro
close

there isn't a video lesson for this song

chords

Complicate You

	  		

Tuning: Drop B 
- BC - (Bend Crazily) 

Intro(0:00-0:08) 
Rhythm Guitar 
C#|--------------------------------------------------------------------------| 
G#|--------------------------------------------------------------------------| 
E|---------------------------------------------------------------------------| 
b|--7----0----10-10-10-10-10-\-9-----7---0----10-10-10-10-10-\-9-------------| 
F#|-7----0----8--8--8--8--8--\-7-----7---0----8--8--8--8--8--\-7-------------| 
B|--7----0---------------------------7---0-----------------------------------| 

C#|--------------------------------------------------------------------------| 
G#|--------------------------------------------------------------------------| 
E|---------------------------------------------------------------------------| 
b|--7----0----10-10-10-10-10-\-9-----5---5----7-7-5-5-3-\-2------------------| 
F#|-7----0----8--8--8--8--8--\-7-----5---5----7-7-5-5-3-\-2------------------| 
B|--7----0---------------------------5---5----7-7-5-5-3-\-2------------------| 

Verse I(0:08-0:26) 
Lead Guitar (Starts at @ 0:17) 
C#|--------------------------------------------------------------------------| 
G#|--------------------------------------------------------------------------| 
E|--5-x-x-x-5-x-x-x-5-x-x-5-x-x-7-x-x-x-5-x-5-x-x-x-5-x-x-5-x-x-7-x----------| 
b|---------------------------------------------------------------------------| 
F#|--------------------------------------------------------------------------| 
B|---------------------------------------------------------------------------| 

C#|--------------------------------------------------------------------------| 
G#|--------------------------------------------------------------------------| 
E|--10-x-x-x-7-x-x-x-5-x-x-5-x-x-7-x-x-x-0-x-0-x-x-x-0-0-x-------------------| 
b|---------------------------------------------------------3-x-x-x-2-3-x-x-0-| 
F#|--------------------------------------------------------------------------| 
B|---------------------------------------------------------------------------| 
                                                                     * 
Note: The "3" note above the asterisk is actually part of the Choruses. It is played 
along with the "3" chord in the Chorus and it simple to match up the two guitar 
parts together. 

Chorus I(0:26-0:45) 
Rhythm Guitar 
C#|--------------------------------------------------------------------------| 
G#|--------------------------------------------------------------------------| 
E|---------------------------------------------------------------------------| 
b|--3---0----0-0-0----7------3---0----0-0-0----3-3-7--5---5--5--5--5---------| 
F#|-3---0----0-0-0----7-(BC)-3---0----0-0-0----3-3-7--5---5--5--5--5---------| 
B|--3---0----0-0-0----7------3---0----0-0-0----3-3-7--5---5--5--5--5---------| 

C#|--------------------------------------------------------------------------| 
G#|--------------------------------------------------------------------------| 
E|---------------------------------------------------------------------------| 
b|--5-5-3--2---2----2-/-7----7-----------------------------------------------| 
F#|-5-5-3--2---2----2-/-7----7-(BC)------------------------------------------| 
B|--5-5-3--2---2----2-/-7----7-----------------------------------------------| 

C#|--------------------------------------------------------------------------| 
G#|--------------------------------------------------------------------------| 
E|---------------------------------------------------------------------------| 
b|--3---0----0-0-0----7------3---0----0-0-0----3-3-7--5---5--5--5--5---------| 
F#|-3---0----0-0-0----7-(BC)-3---0----0-0-0----3-3-7--5---5--5--5--5---------| 
B|--3---0----0-0-0----7------3---0----0-0-0----3-3-7--5---5--5--5--5---------| 

C#|--------------------------------------------------------------------------| 
G#|--------------------------------------------------------------------------| 
E|---------------------------------------------------------------------------| 
b|--5-5-3--2---2----2-/-7-5--3--2--------------------------------------------| 
F#|-5-5-3--2---2----2-/-7-5--3--2--------------------------------------------| 
B|--5-5-3--2---2----2-/-7-5--3--2--------------------------------------------| 

Post-Chorus I(0:45-0:55) 
Rhythm Guitar 
C#|--------------------------------------------------------------------------| 
G#|--------------------------------------------------------------------------| 
E|---------------------------------------------------------------------------| 
b|--7----0----10-10-10-10-10-\-9-----7---0----10-10-10-10-10-\-9-------------| 
F#|-7----0----8--8--8--8--8--\-7-----7---0----8--8--8--8--8--\-7-------------| 
B|--7----0---------------------------7---0-----------------------------------| 

C#|--------------------------------------------------------------------------| 
G#|--------------------------------------------------------------------------| 
E|---------------------------------------------------------------------------| 
b|--7----0----10-10-10-10-10-\-9-----5---5----7-7-5-5-3-\-2------------------| 
F#|-7----0----8--8--8--8--8--\-7-----5---5----7-7-5-5-3-\-2------------------| 
B|--7----0---------------------------5---5----7-7-5-5-3-\-2------------------| 

Verse II(0:55-1:13) 
Lead Guitar  
C#|--------------------------------------------------------------------------| 
G#|--------------------------------------------------------------------------| 
E|--5-x-x-x-5-x-x-x-5-x-x-5-x-x-7-x-x-x-5-x-5-x-x-x-5-x-x-5-x-x-7-x----------| 
b|---------------------------------------------------------------------------| 
F#|--------------------------------------------------------------------------| 
B|---------------------------------------------------------------------------| 

C#|--------------------------------------------------------------------------| 
G#|--------------------------------------------------------------------------| 
E|--10-x-x-x-7-x-x-x-5-x-x-5-x-x-7-x-x-x-0-x-0-x-x-x-0-0-x-------------------| 
b|---------------------------------------------------------3-x-x-x-2---------| 
F#|--------------------------------------------------------------------------| 
B|---------------------------------------------------------------------------| 

C#|--------------------------------------------------------------------------| 
G#|--------------------------------------------------------------------------| 
E|--5-x-x-x-5-x-x-x-5-x-x-5-x-x-7-x-x-x-5-x-5-x-x-x-5-x-x-5-x-x-7-x----------| 
b|---------------------------------------------------------------------------| 
F#|--------------------------------------------------------------------------| 
B|---------------------------------------------------------------------------| 

C#|--------------------------------------------------------------------------| 
G#|--------------------------------------------------------------------------| 
E|--10-x-x-x-7-x-x-x-5-x-x-5-x-x-7-x-x-x-0-x-0-x-x-x-0-0-x-------------------| 
b|---------------------------------------------------------3-x-x-x-2-3-x-x-0-| 
F#|--------------------------------------------------------------------------| 
B|---------------------------------------------------------------------------| 
                                                                     * 
Note: The "3" note above the asterisk is actually part of the Choruses. It is played 
along with the "3" chord in the Chorus and it simple to match up the two guitar 
parts together. 

Chorus II(1:13-1:32)(Same as Chorus I) 

Bridge(1:32-1:50) 
Rhythm Guitar  
C#|--------------------------------------------------------------------------| 
G#|--------------------------------------------------------------------------| 
E|---------------------------------------------------------------------------| 
b|--0-0-2-2-3-3-5-5-7-7-------0-0-2-2-3-3-5-5-7-7-5-5-3-3-2-2----------------| 
F#|-0-0-2-2-3-3-5-5-7-7-------0-0-2-2-3-3-5-5-7-7-5-5-3-3-2-2----------------| 
B|--0-0-2-2-3-3-5-5-7-7-------0-0-2-2-3-3-5-5-7-7-5-5-3-3-2-2----------------| 

C#|--------------------------------------------------------------------------| 
G#|--------------------------------------------------------------------------| 
E|---------------------------------------------------------------------------| 
b|--2-2-2-2----2-2-2------2-2-2-2----2-2-7-7-5-5-3-3-2-2---------------------| 
F#|-2-2-2-2----2-2-2------2-2-2-2----2-2-7-7-5-5-3-3-2-2---------------------| 
B|--2-2-2-2----2-2-2------2-2-2-2----2-2-7-7-5-5-3-3-2-2---------------------| 

C#|--------------------------------------------------------------------------| 
G#|--------------------------------------------------------------------------| 
E|---------------------------------------------------------------------------| 
b|--0-0-2-2-3-3-5-5-7-7-------0-0-2-2-3-3-5-5-7-7-5-5-3-3-2-2----------------| 
F#|-0-0-2-2-3-3-5-5-7-7-------0-0-2-2-3-3-5-5-7-7-5-5-3-3-2-2----------------| 
B|--0-0-2-2-3-3-5-5-7-7-------0-0-2-2-3-3-5-5-7-7-5-5-3-3-2-2----------------| 

C#|--------------------------------------------------------------------------| 
G#|--------------------------------------------------------------------------| 
E|---------------------------------------------------------------------------| 
b|--2-2-2-2----2-2-2------2-2-2-2----2-2-7-7-5-5-3-\-2-----------------------| 
F#|-2-2-2-2----2-2-2------2-2-2-2----2-2-7-7-5-5-3-\-2-----------------------| 
B|--2-2-2-2----2-2-2------2-2-2-2----2-2-7-7-5-5-3-\-2-----------------------| 

Chorus III(1:50-2:08)(Neither guitar plays) 

Chorus IV(2:08-2:27)(Same as Chorus I except Lead Guitar does not play) 

Outroduction(2:27-2:46) 
Rhythm Guitar 
C#|--------------------------------------------------------------------------| 
G#|--------------------------------------------------------------------------| 
E|---------------------------------------------------------------------------| 
b|--3---0----0-0-0----7------3---0----0-0-0----3-3-7--5---5--5--5--5---------| 
F#|-3---0----0-0-0----7-(BC)-3---0----0-0-0----3-3-7--5---5--5--5--5---------| 
B|--3---0----0-0-0----7------3---0----0-0-0----3-3-7--5---5--5--5--5---------| 

C#|--------------------------------------------------------------------------| 
G#|--------------------------------------------------------------------------| 
E|---------------------------------------------------------------------------| 
b|--5-5-3--2---2----2-/-7-5--3--2--------------------------------------------| 
F#|-5-5-3--2---2----2-/-7-5--3--2--------------------------------------------| 
B|--5-5-3--2---2----2-/-7-5--3--2--------------------------------------------| 

Lead Guitar 
C#|--------------------------------------------------------------------------| 
G#|--------------------------------------------------------------------------| 
E|-5-x-x-5-x-x-x-x-5-x-x-5-x-x-7-x-x-x-5-x-5-x-x-----------------------------| 
b|---------------------------------------------------------------------------| 
F#|--------------------------------------------------------------------------| 
B|---------------------------------------------------------------------------| 
                                               * 
(The Lead Guitar seems to simply vanish for a few seconds after the asterisk while 
the vocalist sings "Light my fire") 

C#|--------------------------------------------------------------------------| 
G#|--------------------------------10-8--6--5--------------------------------| 
E|-5-x-x-5--5--5--5---5-x-7--------------------------------------------------| 
b|---------------------------------------------------------------------------| 
F#|--------------------------------------------------------------------------| 
B|---------------------------------------------------------------------------| 

************************************ 

| /   slide up 
| \   slide down 
| x   Mute note 

************************************ 
		  

See also:

tabs Placebo - Without you I'm Nothing tabs Kelly Clarkson - Since u been gone tabs Maroon 5 - She will be loved (intro) tabs Cyndi Lauper - Time After Time tabs Pink - Who knew tabs Black Eyed Peas - My humps
e-chords

Other versions:

tabs Thousand Foot Krutch - Complicate You
auto scroll beats size up size down change color hide chords drawings
tab show chords e-chords YouTube Clip e-chords hide all tabs e-chords go to top tab

share