Thousand Foot Krutch

Born Again

Thousand Foot Krutch

tabs

by  GUSTSILVA

save to print version add songbook text version e-mail correct tuner
chordsukulelecavacokeyboardtabbassdrumsharmonicaflute Guitar Pro
close

there isn't a video lesson for this song

chords

Born Again

	  		
Tuning: B F# B E G# C# 

Intro: 
Guitar 1 
C#|---------------------------------------------------------------------------| 
G#|---------------------------------------------------------------------------| 
E |---------------------------------------------------------------------------| 
B |---------------------------------------------------------------------------| 
F#|---------------------------------------------------------------------------| 
B |-0----0--7--8--7--0----0--8--8--7--0----0--7--8--7--10-7--7--8-------------| 
    x    x  x  x  x  x    x  x  x  x  x    x  x  x  x  x  x  x  x 

C#|---------------------------------------------------------------------------| 
G#|---------------------------------------------------------------------------| 
E |---------------------------------------------------------------------------| 
B |---------------------------------------------------------------------------| 
F#|---------------------------------------------------------------------------| 
B |-0----0--7--8--7--0----0--8--8--7--0----0--7--8--7--10-7--7--8--7--7-------| 
    x    x  x  x  x  x    x  x  x  x  x    x  x  x  x  x  x  x  x  x  x 

Guitar 2 
C#|-------------------------------------------------------------5-------------| 
G#|-------------------------------------------------------------5-------------| 
E |-------------------------------------------------------------5-------------| 
B |---------------------------------------------------------------------------| 
F#|---------------------------------------------------------------------------| 
B |---------------------------------------------------------------------------| 
                                                                + 

Main Riff: 
C#|---------------------------------------------------------------------------| 
G#|---------------------------------------------------------------------------| 
E |---------------------------------------------------------------------------| 
B |---------------------------------------------------------------------------| 
F#|-0----0-----------0----0-----------0----0--------------------8-------------| 
B |-0----0--7--8--7--0----0--8--8--7--0----0--7--8--7--10-7--7--8-------------| 

C#|---------------------------------------------------------------------------| 
G#|---------------------------------------------------------------------------| 
E |---------------------------------------------------------------------------| 
B |---------------------------------------------------------------------------| 
F#|-0----0-----------0----0-----------0----0----------------------------------| 
B |-0----0--7--8--7--0----0--8--8--7--0----0--7--8--7--10-7--7--8--7--7-------| 

C#|---------------------------------------------------------------------------| 
G#|---------------------------------------------------------------------------| 
E |---------------------------------------------------------------------------| 
B |---------------------------------------------------------------------------| 
F#|-0----0-----------0----0-----------0----0--------------------8-------------| 
B |-0----0--7--8--7--0----0--8--8--7--0----0--7--8--7--10-7--7--8-------------| 

C#|---------------------------------------------------------------------------| 
G#|---------------------------------------------------------------------------| 
E |---------------------------------------------------------------------------| 
B |---------------------------------------------------------------------------| 
F#|-0----0-----------0----0-----------8--------7--------3--------5------------| 
B |-0----0--7--8--7--0----0--8--8--7--8--------7--------3--------5------------| 


Verse: (x2) 
C#|---------------------------------------------------------------------------| 
G#|---------------------------------------------------------------------------| 
E |---------------------------------------------------------------------------| 
B |---------------------------------------------------------------------------| 
F#|-0----0--------0--0----0--------0--0----0--------0--0-----0--7-------------| 
B |-0----0--------0--0----0--------0--0----0--------0--0-----0--7-------------| 
    x    x        x  x    x        x  x    x        x  x     x  x 

C#|---------------------------------------------------------------------------| 
G#|---------------------------------------------------------------------------| 
E |---------------------------------------------------------------------------| 
B |---------------------------------------------------------------------------| 
F#|-0----0--------0--0----0--------0--7--------6--------0--------3------------| 
B |-0----0--------0--0----0--------0--7--------6--------0--------3------------| 
    x    x        x  x    x        x  x        x        x        x 


Pre-Chorus (x2) 
C#|---------------------------------------------------------------------------| 
G#|---------------------------------------------------------------------------| 
E |---------------------------------------------------------------------------| 
B |---------------------------------------------------------------------------| 
F#|-0----0--------0--0----0--------0--0----0--------0--0-----0--7-------------| 
B |-0----0--------0--0----0--------0--0----0--------0--0-----0--7-------------| 

C#|---------------------------------------------------------------------------| 
G#|---------------------------------------------------------------------------| 
E |---------------------------------------------------------------------------| 
B |---------------------------------------------------------------------------| 
F#|-0----0--------0--0----0--------0--7--------6--------0--------3------------| 
B |-0----0--------0--0----0--------0--7--------6--------0--------3------------| 


Chorus: 
C#|---------------------------------------------------------------------------------------------| 
G#|---------------------------------------------------------------------------------------------| 
E |---------------------------------------------------------------------7--7--7--7--5--5--5--5--| 
B |-8--8--8--8--8--8--0----0--0--0--0--0--0--0--5--5--5--5--5--5--5--5--7--7--7--7--5--5--5--5--| 
F#|-8--8--8--8--8--8--0----0--0--0--0--0--0--0--5--5--5--5--5--5--5--5--5--5--5--5--3--3--3--3--| 
B |-8--8--8--8--8--8--0----0--0--0--0--0--0--0--5--5--5--5--5--5--5--5--------------------------| 

C#|---------------------------------------------------------------------------------------------| 
G#|---------------------------------------------------------------------------------------------| 
E |---------------------------------------------------------------------------------------------| 
B |-8--8--8--8--8--8--0----0--0--0--0--0--0--0--5--5--5--5--5--5--5--5--7-----------6-----------| 
F#|-8--8--8--8--8--8--0----0--0--0--0--0--0--0--5--5--5--5--5--5--5--5--7-----------6-----------| 
B |-8--8--8--8--8--8--0----0--0--0--0--0--0--0--5--5--5--5--5--5--5--5--7-----------6-----------| 


(Second Half of Main Riff) 
(Verse) 
(Pre-Chorus) 
(Chorus) 


Extended Chorus: 
C#|---------------------------------------------------------------------------------------------| 
G#|---------------------------------------------------------------------------------------------| 
E |---------------------------------------------------------------------7--7--------5--5--------| 
B |-8--8--8--8--8--8--0----0--0--0--0--0--0--0--5--5--5--5--5--5--5--5--7--7--------5--5-----8--| 
F#|-8--8--8--8--8--8--0----0--0--0--0--0--0--0--5--5--5--5--5--5--5--5--5--5--------3--3-----8--| 
B |-8--8--8--8--8--8--0----0--0--0--0--0--0--0--5--5--5--5--5--5--5--5-----------------------8--| 
                                                                              x           x 

C#|---------------------------------------------------------------------------------------------| 
G#|---------------------------------------------------------------------------------------------| 
E |---------------------------------------------------------------------------------------------| 
B |----8--8--8--8--8--0----0--0--0--0--0--0--0--5--5--5--5--5--5--5--5--7--7--------6--6--------| 
F#|----8--8--8--8--8--0----0--0--0--0--0--0--0--5--5--5--5--5--5--5--5--7--7--------6--6--------| 
B |----8--8--8--8--8--0----0--0--0--0--0--0--0--5--5--5--5--5--5--5--5--7--7--------6--6--------| 


Solo: 
Guitar 1 
(Chorus) 

Guitar 2: 
C#|------10-----------------------------------------10------------------------------------------| 
G#|-----------13---11---10---------------10--------------13---11---10---------------10----------| 
E |--------------------------12-12--------------------------------------12-12-------------------| 
B |------------------------------------------------------------------------------------12-------| 
F#|---------------------------------------------------------------------------------------------| 
B |---------------------------------------------------------------------------------------------| 

C#|------10-------------------------------------------------------------------------------------------------| 
G#|-----------13---11---10---------------10---------12------12------12------12------14---14-14---12---12-12-| 
E |--------------------------12-12-----------------------12------12------12------12-------------------------| 
B |---------------------------------------------------------------------------------------------------------| 
F#|---------------------------------------------------------------------------------------------------------| 
B |---------------------------------------------------------------------------------------------------------| 



Bridge: (x2) 
C#|---------------------------------------------------------------------------------------| 
G#|---------------------------------------------------------------------------------------| 
E |---------------------------------------------------------------------------------------| 
B |-0----0--------0--0----0--------0--8----7----0----0--------0--0----0--------0--5----8--| 
F#|-0----0--------0--0----0--------0--8----7----0----0--------0--0----0--------0--5----8--| 
B |-0----0--------0--0----0--------0--8----7----0----0--------0--0----0--------0--5----8--| 

C#|---------------------------------------------------------------------------------------| 
G#|---------------------------------------------------------------------------------------| 
E |---------------------------------------------------------------------------------------| 
B |-0----0--------0--0----0--------0--8----7----0----0--------0--0----0--------0--7----6--| 
F#|-0----0--------0--0----0--------0--8----7----0----0--------0--0----0--------0--7----6--| 
B |-0----0--------0--0----0--------0--8----7----0----0--------0--0----0--------0--7----6--| 


Transition: 

C#|---------| 
G#|---------| 
E |---------| 
B |-3----5--| 
F#|-3----5--| 
B |-3----5--| 


(Chorus) 
(Extended Chorus) 
(Main Riff) 


************************************ 

| /   slide up 
| \   slide down 
| h   hammer-on 
| p   pull-off 
| ~   vibrato 
| +   harmonic 
| x   Mute note 
| b   Bend 
| pb  Pre-bend 
| br  Bend release 
| pbr Pre-bend release 
| brb Bend release bend 

************************************ 
		  

See also:

tabs Placebo - Without you I'm Nothing tabs Kelly Clarkson - Since u been gone tabs Maroon 5 - She will be loved (intro) tabs Cyndi Lauper - Time After Time tabs Pink - Who knew tabs Black Eyed Peas - My humps
e-chords

Other versions:

tabs Black Sabbath - Born Again tabs Newsboys - Born Again tabs Thousand Foot Krutch - Born Again
auto scroll beats size up size down change color hide chords drawings
tab show chords e-chords YouTube Clip e-chords hide all tabs e-chords go to top tab

share