This Town Needs Guns

Ron Jeremy Beadle

This Town Needs Guns

tabs

by  JOAOEWERTON

save to print version add songbook text version e-mail correct tuner
chordsukulelecavacokeyboardtabbassdrumsharmonicaflute Guitar Pro
close

there isn't a video lesson for this song

chords

Ron Jeremy Beadle

	  		------------------------------------------------------------------------------- 
                  Ron Jeremy Beadle - This Town Needs Guns 
------------------------------------------------------------------------------- 
| /   slide up 
| \   slide down 
| h   hammer-on 
| p   pull-off 
| ~   vibrato 
| +   harmonic 
| x   Mute note 
| b   Bend 
| pb  Pre-bend 
| br  Bend release 
| pbr Pre-bend release 
| brb Bend release bend 
| ||---|| Repeat 

I tabbed this all by ear so I apologize if there's any error's. 

Tuning : D A E F# B d 

Guitar 1 only 

d ||-----------------0---|---------------|--------|----------|---------|| 4x 
B ||---------------------|---------------|--------|----------|---------|| 
F#||-------------0-----7-|------------3--|--------|--------0-|----7----|| 
E ||-----------5---0-----|--------0------|--------|------9---|------0--|| 
A ||--0h5h7--7-----------|----0h5---4----|------0-|----------|--0------|| 
D ||---------------------|--0------------|--0h2---|--2/9-----|---------|| 

d ||----------0-----|------------------0-----|-------------------0-----| 
B ||------2-------2-|------2-------2-------2-|-------2-------2-------2-| 
F#||----0-----------|----0-------0-----------|-----0-------0-----------| 
E ||----------------|------------------------|-------------------------| 
A ||--2-----2---2---|--2-----2-2-----2---2---|---2-----2-0-----0---0---| 
D ||----------------|------------------------|-------------------------| 

d |--------------------0-----|---------------------0-----|------------------0-------------|| 3x 
B |--------2-------2-------2-|------2---------2--------2-|------2-------2-------2-----2---|| 
F#|------0-------0-----------|----0---------0------------|----0-------0-------------0-----|| 
E |--------------------------|---------------------------|--------------------------------|| 
A |----0-----0-0-----0---0---|--0------0-----------------|--------------------------------|| 
D |--------------------------|------------0------0---0---|--0-----0-0-----0---0---0-----0-|| 

d ||------------0---------0-------0--|| 36x 
B ||---------------------0---10------|| 
F#||--5\3---5/7-----12\10-------9----|| 
E ||------0--------------------------|| 
A ||---------------------------------|| 
D ||---------------------------------|| 

This is also the background to the 3rd part.  
d ||-----------0-------------------0-----------------0----------------0--------| 
B ||-------------10------------------10----------------10---------------10-----| 
F#||--------10------10----------10------10---------8------8---------8------8---| 
E ||------9------------9-----9------------9------9----------9-----9----------9-| 
A ||----9------------------9-------------------0----------------0--------------| 
D ||--9------------------9-------------------0----------------0----------------| 

d |----------0------------------|| 2x 
B |------------0----------------|| 
F#|--------3-----3----------0---|| 
E |------3---------3------5-----|| 
A |----2----------------5-------|| 
D |--2---------------/5---------|| 
		  

See also:

tabs Ira! - Poço de Sensibilidade (Solo - Acustico Mtv) tabs Deep Purple - Smoke On The Water tabs Deep Purple - Smoke on the water (intro) tabs Ira! - Eu Quero Sempre Mais (Com Pitty, intro) tabs Deep Purple - Smoke on the Water (ver. 2) tabs Deep Purple - Knocking At Your Back Door
e-chords

Other versions:

tabs This Town Needs Guns - Ron Jeremy Beadle
auto scroll beats size up size down change color hide chords drawings
tab show chords e-chords YouTube Clip e-chords hide all tabs e-chords go to top tab

share