This Town Needs Guns

Adventure Stamina Anger

This Town Needs Guns

tabs

by  VSWORLD

save to print version add songbook text version e-mail correct tuner
chordsukulelecavacokeyboardtabbassdrumsharmonicaflute Guitar Pro
close

there isn't a video lesson for this song

chords

Adventure Stamina Anger

	  		
 Intro: 
             | | |   ||| 

E |----------12------0--------------------------------------------------| 
B |--7h0-------12-----0-------------------------------------------------| 
F#|--------------9-----0-----12/9--9-9-12-9-7-5-------------------------| 
Eb|---------------10----------------------------------------------------| 
B |--0-----0-----------------12/9--9-9-12-9-7-5-------------------------| 
E |--------------------------------0-0--0-0-0-0-------------------------| 

   Pre-verso/Pre-verse I: 

E |-----------9---9-------14------14-----14-11-----14--11------------| 
B |---------12--12------0-------0-----12--------12--------12---------| 
F#|------------------------0-------0------0---------0----------------| 
Eb|-----------0---0--------------------------0----------0------------| 
B |-0---0---0---0-------0-------0----------------0-------------------| 
E |---9---9----------14------14--------0-----------------------------| 

   Verso/Verse: 

E |-------------0------------------------------------------------------| 
B |-------------0------------------------------------------------------| 
F#|-----------0--------------------------------------------------------| 
Eb|-5-5-3p0---------0-(a-veces-este-ultimo-acorde-se-toca-mas-veces)---| 
B |-0-0-0-----4-----2-(sometimes-this-last-chord-is-played more times)-| 
E |-0-0-0-----4-----2--------------------------------------------------| 

   Pre-coro/Pre-Chorus 
E |------------------------------------------------------------------| 
B |-------4----------------------------------------------------------| 
F#|-----5--5--------7-----0---0---0---0------------------------------| 
Eb|---3------3-----8-8-----0---0---0---0-----------------------------| 
B |---------------9---9-----0---0---0---0----------------------------| 
E |-0------------9--------4---7---2---0------------------------------| 

   Chorus: 

      T   t T   t  T    t  T   t T   t T   t  T   t 
E |--------------------------------------------------| 
B |--------------------------------------------------| 
F#|-------12-------------------12--------------------| 
Eb|-------------12-------------------12-----------12-| 
B |---9p0---9p0----9p0--12-9p0---9p0---9p0-12-9p0----| 
E |-0------------------------------------------------| 

     T t T t T t T t T t 
E |-------------------------| 
B |-------------------------| 
F#|----5---5---5---5---5----| 
Eb|----5---5---5---5---5----| 
B |--9---9---9---9---9------| 
E |--9---9---9---9---9------| 

     TTtTtTtT TtTtt Tt   TTtTtTtT TtTtt Tt 
E |--------------------------------------------| 
B |--------------------------------------------| 
F#|----5------5------------5------5------------| 
Eb|------5------5----5-------5------5----5-----| 
B |---4----4------4-------4----4------5--------| 
E |--4--4-4-4--4-4--4----4--4-4-4--4-4--4------| 


   Post-Coro/Post-Chorus: 

        t  t     T T  t       t           t t 
E |--------------------------------------------------| 
B |-----------------------------0----0----7--/9------| 
F#|-----12------------5------------------------------| 
Eb|--------12---------5-------5---/7---p0---7/8p0----| 
B |-7/9------------9--------4------------------------| 
E |-0------------9--------4--------------------------| 

        t  t  t t  T T  T T  t       t             t* 
E |------------------11-------------------------------------| 
B |-----------12---9-------------------0----0------12*------| 
F#|-----12------12-----------5------------------------------|   *Repetir/Repeat* 
Eb|--------12----------------5-------5---/7---p0---12*------| 
B |-7/9-------------------9--------4------------------------| 
E |-0-------------------9--------4--------------------------| 

   Fin-Post-Coro/Post-Chorus-Ending: 

        t  t  t t  T T T T  t 
E |------------------11--------| 
B |-----------12---9-----------| 
F#|-----12------12----------5--| 
Eb|--------12---------------5--| 
B |-7/9------------------9-----| 
E |-0------------------9-------| 


   Repetir Intro/Repeat Intro 


   Pre-verso II/Pre-Verse II 

E |-------------------------------------------------------------------| 
B |-------------------------------------------------------------------| 
F#|-------------------------------------------------------------------| 
Eb|-------0h1p0---3-------------------------0h1p0----5----------------| 
B |-0-0-0-------0------------0--------0-0-0--------0------------0-----| 
E |-----------------4-0--4-4---4-2-5-------------------4-0--4-4---4-2-| 


   Repetir Verso/Repeat Verse 


   Puente/Bridge: 
                  | | | | 
E |--11h0-----0-----------0-------------0--------------------------------| 
B |------12-----0------12----0-----------0----------0------------0-------| 
F#|--------12--------12----------------------------0------------0--------| 
Eb|-----------------x-----------------12----------7------------0---------| 
B |---0-----------12----------------12-----------7------------4----------| 
E |-------------------------------12------------7------------4-----------| 

   Fin-Puente/Bridge's ending: 

E |----------------| 
B |----------------| 
F#|----------------| 
Eb|--5-5-5-5-5-5---| 
B |--4-4-4-4-4-4---| 
E |--4-4-4-4-4-4---| 

   Repetir Coro/Repeat Chorus 


   Final/Ending: 

         t  t 
E |-------------| 
B |-------------| 
G |---------12--| 
Eb|------12-----| 
B |-7/9---------| 
E |-0-----------| 
		  

See also:

tabs Deep Purple - Demonds Eye tabs Deep Purple - Money Talks tabs Ira! - Eu Quero Sempre Mais (Com Pitty, intro) tabs Albert Hammond Jr - Holiday tabs Deep Purple - Smoke on the water (intro) tabs Deep Purple - Smoke on the Water (ver. 2)
e-chords

Other versions:

tabs This Town Needs Guns - Adventure Stamina Anger
auto scroll beats size up size down change color hide chords drawings
tab show chords e-chords YouTube Clip e-chords hide all tabs e-chords go to top tab

share