Thirsty Merc

Wasting Time

Thirsty Merc

tabs

save to print version add songbook text version e-mail correct tuner
chordsukulelecavacokeyboardtabbassdrumsharmonicaflute Guitar Pro
close

there isn't a video lesson for this song

chords

Wasting Time

	  		Updated by Tom Francis 
[email protected] 
 
 - Added the final verse 
 - Updated the Bridge 
 - Added Lyrics  
 
 
 
 
VERSE: (palm mute) 
E-|-------------------------------------|--------------------------------------| 
B-|-------------------------------------|--------------------------------------| 
G-|-------------------------------------|--------------------------------------| 
D-|-2-2-2-2-6-6-6-7-7-7-7-7-7-7-7-7-7-7-|-2-2-2-2-6-6-6-7-7-7-7-7-7-7-7-7-7-7--| 
A-|-0-0-0-0-4-4-4-5-5-5-5-5-5-5-5-5-5-5-|-0-0-0-0-4-4-4-5-5-5-5-5-5-5-5-5-5-5--| 
E-|-------------------------------------|--------------------------------------| 
 
E-|----------------------------------------------------------------------------| 
B-|----------------------------------------------------------------------------| 
G-|----------------------------------------------------------------------------| 
D-|-2-2-2-2-6-6-6-7-7-7-7-8-8-8-8-7-7-7-7-8-8-8-8-7-7-7-7-7-7-7-7----7---------| 
A-|-0-0-0-0-4-4-4-5-5-5-5-6-6-6-6-5-5-5-5-6-6-6-6-5-5-5-5-5-5-5-5-/8-----------| 
E-|----------------------------------------------------------------------------| 
 
E-|--------------------------------------|-------------------------------------| 
B-|--------------------------------------|-------------------------------------| 
G-|--------------------------------------|-------------------------------------| 
D-|-2-2-2-2-6-6-6-7-7-7-7-7-7-7-7-7-7-7--|-2-2-2-2-6-6-6-7-7-7-7-7-7-7-7-7-7-7-| 
A-|-0-0-0-0-4-4-4-5-5-5-5-5-5-5-5-5-5-5--|-0-0-0-0-4-4-4-5-5-5-5-5-5-5-5-5-5-5-| 
E-|--------------------------------------|-------------------------------------| 
 
E-|----------------------------------------------------------------------------| 
B-|----------------------------------------------------------------------------| 
G-|----------------------------------------------------------------------------| 
D-|-2-2-2-2-6-6-6-7-7-7-7-8-8-8-8-8-8-8-8-9-9-9-9-10-10-10-10-11-11-11-11-11-11| 
A-|-0-0-0-0-4-4-4-5-5-5-5-6-6-6-6-7-7-7-7-8-8-8-8-9--9--9--9--10-10-10-10-10-10| 
E-|----------------------------------------------------------------------------| 
 
CHORUS CHORDS: 
 
    A5  F#5  B5  E5   A5 F5 F#5 B5  E5 
E-|-----------------|-----------------| 
B-|-----------------|-----------------| 
G-|-2--------4------|-2---------4-----| 
D-|-2---4----4---2--|-2--3--4---4---2-| 
A-|-0---4----2---2--|-0--3--4---2---2-| 
E-|-----2--------0--|----1--2-------0-| 
 
To me it sounds like there is a second guitar appregiating  
the chorus chords in the background. 
 
 
BRIDGE: 
     Cm  G#               Cm  G#   F 
E-|-------------------------------------------------| 
B-|-4-4-------------------4-4-----------------------| 
G-|-5-5-------------------5-5-----------------------| (x 2) 
D-|-5-5-6-6-6-6-6-6-6-6---5-5-6-6-6-3-3-3-3-3-3-3-3-| 
A-|-3-3-6-6-6-6-6-6-6-6---3-3-6-6-6-3-3-3-3-3-3-3-3-|  
E-|-----4-4-4-4-4-4-4-4-------4-4-4-1-1-1-1-1-1-1-1-| 
 
Theres also a small lead riff during the bridge which goes like... 
     
E-|-------------------| 
B-|-------------------| 
G-|--7h8---7--5--3~---| (X 2) 
D-|-------------------| 
A-|-------------------| 
E-|-------------------| 
    wah___________| 
 
 
 
VERSE: (palm mute) 
E-|-------------------------------------| 
B-|-------------------------------------| 
G-|-------------------------------------| 
D-|---------6-6-6-7-7-7-7-7-7-7-7-7-7-7-| 
A-|-7-7-7-7-4-4-4-5-5-5-5-5-5-5-5-5-5-5-| 
E-|-5-5-5-5-----------------------------| 
 
 
E-|-----------------------------------------------------| 
B-|-----------------------------------------------------| 
G-|-----------------------------------------------------| 
D-|---------6-6-6-7-7-7-7-7-7-7-7-7-7-7----7-9-9h10p9p7-| 
A-|-7-7-7-7-4-4-4-5-5-5-5-5-5-5-5-5-5-5-7h9-----------7-| 
E-|-5-5-5-5-------------------------------------------5-| 
 
 
E-|----------------------------------------------------------------------------| 
B-|----------------------------------------------------------------------------| 
G-|----------------------------------------------------------------------------| 
D-|---------6-6-6-7-7-7-7-8-8-8-8-8-8-8-8-9-9-9-9-10-10-10-10-11-11-11-11-11-11| 
A-|-7-7-7-7-4-4-4-5-5-5-5-6-6-6-6-7-7-7-7-8-8-8-8-9--9--9--9--10-10-10-10-10-10| 
E-|-5-5-5-5--------------------------------------------------------------------| 
 
Repeat Chorus 
 
 
LYRICS 
 
VERSE 
All is fair 
I'm trying to make you notice me 
But you dont care 
You play me like a broken game of snakes and ladders 
Or cards or piana 
or a record thats been thrown in the trash 
 
I like you 
I've liked you since I saw you walking down my street 
I like your little vibe (?), your clothes and feet 
And your hair and your eyes 
And your nose and your face 
And your line 
 
CHORUS 
I know your name 
And I've got your number 
I dont wanna save the world 
I just wanna waste some time with you 
We're both so young 
We might as well face it 
I don't wanna change nothing 
I just wanna waste some time with you 
 
Three Blind Mice 
I may as well be asking them to staple the vice 
Instead I'm on a seesaw all day and night 
And all week and all month 
And all year all my life 
I'm only human 
 
If only you could see 
You do some pretty crazy little things to me 
And I don't wanna change the course of history 
I just want you to be next to someone like me 
And be free 
 
CHORUS 
 
BRIDGE 
Wasting Time 
Wasting time with you 
 
Now you know 
My thoughts are back where I'd like the story to go 
I feel like if you'd really like to play it cool 
We should do it, do it, do it 
Yeah!  
 
CHORUS 
 
_______________________________________________________________________ 
Thats it 
Thanks to Paul for figuring 99% of it out 
		  

Full key step upFull key step up
Half key step upHalf key step up
Half key step downHalf key step down
Full key step downFull key step down
hide glossary

See also:

tabs Pete Murray - beautiful tabs Powderfinger - These Days tabs John Butler Trio - Attitude tabs John Butler Trio - Peaches & Cream tabs Russell Morris - On The Wings Of An Eagle tabs Pete Murray - Bail Me Out
e-chords

Other versions:

tabs Blink 182 - Wasting time tabs Jack Johnson - Wasting Time tabs Thirsty Merc - Wasting Time tabs Sick of Sarah - Wasting Time
auto scroll beats size up size down change color hide chords drawings
tab show chords e-chords YouTube Clip e-chords hide all tabs e-chords go to top tab

share