Third Eye Blind

London (ver. 2)

Third Eye Blind

tabs

save to print version add songbook text version e-mail correct tuner
chordsukulelecavacokeyboardtabbassdrumsharmonicaflute Guitar Pro
close

there isn't a video lesson for this song

chords

London (ver. 2)

	  		Song: London 
Artist: Third Eye Blind 
Album: Third Eye Blind  
Tabbed by: Nathan Sisk 
 
 
Open Tuning: DADF#Ae (Distortion) 
 
Intro: 
------------------------------------------------------------------ 
------------------10b----------------------------10b-------------- 
----8b-----------------------------8b----------------------------- 
-9-----7-7-9/12--------7-7--7/9-------7-7--9/12------x5-4-2-4----- 
-9-----7-7-9/12--------7-7--7/9-------7-7--9/12------x5-4-2-4----- 
-9-----7-7-9/12--------7-7--7/9-------7-7--9/12------x5-4-2-4----- 
 
 
Verse: 
------------------------------------------------------------------ 
------------------------------------------------------------------ 
------------------------------------------------------------------ 
-9-----7-7-9/12--------7-7--7/9-------7-7--9/12------5\4-2-0------ 
-9-----7-7-9/12--------7-7--7/9-------7-7--9/12------5\4-2-0------ 
-9-----7-7-9/12--------7-7--7/9-------7-7--9/12------5\4-2-0------ 
 
 
Chorus: 
-0-0-0-0------------0----0-------0--------0-0-0----xxxxxx 
-0-0-0-0------------0----0-------0--------0-0-0----xxxxxx 
-x-x-x-x------------x----x-------x--------x-x-x----xxxxxx 
-7-7-7-7----7-5-7-5-7----9-----9-9----7-7-7-7-7----xxxxxx 
-7-7-7-7----5-5-5-5-5----9-9-9-9-9----7-7-7-7-7----xxxxxx 
-7-7-7-7----5-5-5-5-5----9-----9-9----7-7-7-7-7----xxxxxx 
I see the way your face has changed, We're no good for each other,  
                  
                                            
----0-0-0-0--------------------|-10-10-10-10-10-10-10-10- 
----0-0-0-0--------------------|-10-10-10-10-10-10-10-10- 
----x-x-x-x--------------0-----|-12-12-12-12-12-12-12-12- 
----7-7-7-7----7-5-7-5-5-0-----|-10-10-10-10-10-10-10-10- 
----7-7-7-7----5-5-5-5-5-0-----|-10-10-10-10-10-10-10-10- 
----7-7-7-7----5-5-5-5-5-0-----|-10-10-10-10-10-10-10-10- 
You tricked me into coming here,  So let go,I don't wanna go to  
 
-0--0--0--0--0--0--0--0-----10-10-10-10-10-10-10-10----5-5-5-5-5-5-5-5- 
-0--0--0--0--0--0--0--0-----10-10-10-10-10-10-10-10----5-5-5-5-5-5-5-5- 
-12-12-12-12-12-12-12-12----12-12-12-12-12-12-12-12----5-5-5-5-5-5-5-5- 
-0?-0?-0?-0?-0?-0?-0?-0-----10-10-10-10-10-10-10-10----5-5-5-5-5-5-5-5- 
-x?-x?-x?-x?-x?-x?-x?-x-----10-10-10-10-10-10-10-10----5-5-5-5-5-5-5-5- 
-12-12-12-12-12-12-12-12----10-10-10-10-10-10-10-10----5-5-5-5-5-5-5-5- 
 London (I told you I don't care) I don't wanna go to London, To live 
 
 
Solo: (Phase Shifter) 
--3/2-0---3/2------------------3/2-0?--3/2-------------- 
--------------5----------------------------5------------ 
-------------------------------------------------------- 
-----------------7?--7b-----7-----------------7---7b---- 
-------------------------------------------------------- 
-------------------------------------------------------- 
 
----3\2-----3\2------------------3\2-0---3\2------------ 
--------5/7-----5----------------------------5---------- 
-------------------------------------------------------- 
--7-----------------7---7b-----7----------------7---7b-- 
-------------------------------------------------------- 
-------------------------------------------------------- 
 

		  

See also:

tabs Dire Straits - Brothers in Arms tabs The Shadows - Apache tabs Status Quo - Whatever you want tabs Yes - Roundabout tabs Dire Straits - Sultans of Swing tabs Queen - Bohemian Rhapsody
e-chords

Other versions:

tabs Third Eye Blind - London tabs Ben Howard - London tabs Third Eye Blind - London (ver. 2) tabs Panic at the disco - london beckoned song about money tabs Panic at the disco - London beckoned songs about money tabs Panic! At The Disco - London Beckoned Songs About Money Written By Machines
auto scroll beats size up size down change color hide chords drawings
tab show chords e-chords YouTube Clip e-chords hide all tabs e-chords go to top tab

share