Therion

Under Jolly Roger

Therion

tabs

by  HEAVY MASTER

save to print version add songbook text version e-mail correct tuner
chordsukulelecavacokeyboardtabbassdrumsharmonicaflute Guitar Pro
close

there isn't a video lesson for this song

chords

Under Jolly Roger

	  		UNDER JOLLY ROGER BY THERION FOM A´arab zaraq lucid dreaming 

MUY BIEN ESTA ROLA ME COSTO UN HUEVO Y LA MITAD DEL OTRO ASI QUE AQUI ESTA 
NO ES PARA FAROLES NI PARA PAUSERS NI PARA HIMOS NADAAA SOLO METAL 

INTRO 
x2 
|------------------------------------------------ 
|------------------------------------------------ 
|---------------------------------------------- 
|--222000----------222000-----555222000--------222000-------- 
|----------333000---------333-----------333000--------333------ 
|---------------------------------------------------------333--- 

riff 1 
x4 
|----------------------------------------- 
|----------------------------------------- 
|--------------------------2--------------- 
|--2222222222-------5------0-----2-----5--- 
|--0000000000--000--3--000---000-0-000-3--0- 
|------------------------------------------- 

riff 2 
x2 
|----------------------------------------------- 
|----------------------------------------------- 
|--444444444444---777777777---99999--------------------------------------- 
|--222222222222---555555555---77777---------------------------------------- 
|------------------------------------------------ 
|------------------------------------------------ 

riff3 
x2 
|---------------------------------------------- 
|----------------------------------------------- 
|----------------------------------- 
|--------------5---------222000-------------- 
|----7---7-5-7-3-7--5------------333000---- 
|----5---5-3-5---5--3------------- 

y se vuelve a repetir  (again) 
riff 1 
riff 2 
riff 3 


riff 4 
x2   
|----------------------------------------------- 
|----------------------------------------------- 
|--4--7-2-4-7-9--7------------------------------------- 
|--2--5-0-2-5-7--5-------------------------------------- 
|------------------------------------------------ 
|------------------------------------------------ 

muy bien esto se pone interesante aqui biene el solo 
la verdad muy cabron pero si no eres farol y en verdad  
eres un cabron la tocaras sin ningun problema 
agarren sus sombreros  METAAAAAAALLLLLL¡¡¡¡¡¡¡ 

(SOLO) 

GUITARRA RITMICA ESTO ES DURANTE EL SOLO 

|-------------------------------------------------------------- 
|------------------------------------------------------------- 
|-4--4-444--4-444--4-444--4-444--4-444--4-444--4-44-----7------  
|-2--2-222--2-222--2-222--2-222--2-222--2-222--2-22-7---5------ 
|---------------------------------------------------5---------- 
|-------------------------------------------------------------- 
     . ..   . ..   . ..   . ..   . ..   . ..   . ..   

GUITARRA SOLISTA   
|------------13-12-10-12----13-12-10--------------| 
|----12bhr~--------------------------13-12-10-12~-| 
|-9-----------------------------------------------| 
|-------------------------------------------------| 
|-------------------------------------------------| 
|-------------------------------------------------| 
ESTA PARTE MUY RAPIDO¡¡¡¡ 
|-------------------------------------------------------------------12-15-12-15-12-15 
|--------------------------------------------------------10"-8"---------- 
|------------------------------------------------------------------------ 
|-----------------------------------------7-9-7-9-7-9-7-9---------------------- 
|-7-10-7-10-7-10-7-10-7-10-7-10-7-10-7-10--------------------------------- 
|------------------------------------------------------------------------ 

----------12"-15"---------22bf~---|-10-8-7--------------------------------------- 
--12"-15"---------12"-15"---------|--------10-8-7---------------------------- 
----------------------------------|---------------9~---------------------------  
----------------------------------|--------------------------7-9-10-9~----------- 
----------------------------------|-------------------7-9-10----------------- 
----------------------------------|------------------------------------------- 
                                    
------------------8-10-12-10-8--------------------8-10-12-10-8------------------ 
----------8-10-12--------------12-10-8----8-10-12--------------12-10-8----------- 
-7/9-9~--------------------------------10------------------------------10-------- 
-------------------------------------------------------------------------- 
-------------------------------------------------------------------------- 
---------------------------------------------------------------------------  

|---------------------------------------------- 
|---------------------------------------------- 
|-9--10--13---10--9--7---------------7-9~------ 
|------------------------------6-7-9----------- 
|-7--8---11---8---7--5---5-7-8----------------- 
|---------------------------------------------- 
                         . . . . . . . 


BUENO ESO ES TODO  
LO DEMAS ES LO MISMO SOLO CON UNOS PEQUEÑOS EFECTOS 
DEDICADA A DIANA ADIOS    
POLA 


		  

auto scroll beats size up size down change color hide chords drawings
tab show chords e-chords YouTube Clip e-chords hide all tabs e-chords go to top tab

share