Theocracy

Absolution Day

Theocracy

tabs

by  TARIKIKE

save to print version add songbook text version e-mail correct tuner
chordsukulelecavacokeyboardtabbassdrumsharmonicaflute Guitar Pro
close

there isn't a video lesson for this song

chords

Absolution Day

	  		Intro: 
 
E|---------------------------------------------------------------------------| 
B|---12-0-13-0-12-0-10-0---12------------------------------------------------| 
G|---------------------------------------------------------------------------| 
D|---------------------------------------------------------------------------| 
A|---------------------------------------------------------------------------| 
E|---------------------------------------------------------------------------| 
 

 
|---------12r--10-12-10-----------------------------------------------------| 
|---12--------------------13-12---10-12-13--------12-0-13-0-12-0-10-0-------| 
|-------9-------------------------------------------------------------------| 
|---------------------------------------------------------------------------| 
|---------------------------------------------------------------------------| 
|---------------------------------------------------------------------------| 
 

 
|---------12r--10-12-10-----------------------------------------------------| 
|---12--------------------13-12---10-12-13--------12-0-13-0-12-0-10-0---12--| 
|-------9-------------------------------------------------------------------| 
|---------------------------------------------------------------------------| 
|---------------------------------------------------------------------------| 
|---------------------------------------------------------------------------| 
 

Verso 1: 
 
|---------------------------------------------------------------------------| 
|---------------------------------------------------------------------------| 
|---------------------------------------------------------------------------| 
|---------------------------------------------------------------------------| 
|---------------------------------------------------------------------------| 
|---0---0-0-0-0-0-0---0-0-0-0-0-0---0-0-0-0-0-0---0-0-0-0-0-----------------| 
 

 
|---------------------------------------------------------------------------| 
|---------------------------------------------------------------------------| 
|---5---------5---------5--------7---------7---------7----------------------| 
|---5---------5---------5--------7---------7---------7----------------------| 
|---3-3-3-3-3-3-3-3-3-3-3-3-3----5-5-5-5-5-5-5-5-5-5-5----------------------| 
|---------------------------------------------------------------------------| 
 

Verso 2: 
 
|---------------------------------------------------------------------------| 
|---------------------------------------------------------------------------| 
|----------5--4-------------------------------------------------------------| 
|-5--------5--4--2----------------------------------------------------------| 
|-5--------3--2--2----------------------------------------------------------| 
|-3--3-3---------0--3-3-3-3-5-5-5-5-7-7-7-7-8-8-8-8-7-7-7-7-5-5-5-5-3-3-3-3-| 
 


 
|---------------------------------------------------------------------------| 
|---------------------------------------------------------------------------| 
|-------5----------------------------7--------------------------------------| 
|--3----5----------------------------7--------------------------------------| 
|--3----3----5-5-5-5-5-5-5-5-5-5-5-5-5--------------------------------------| 
|--1------------------------------------------------------------------------| 
 

(Verso 1) 
(Verso 2) 

Verso 3: 
 
|--------------------------------------------------------------------------| 
|--------------------------------------------------------------------------| 
|--9-------7----5---------4----2-------5----7--------7---------------------| 
|--9-------7----5---------4----2-------5----7----7---5---7-----------------| 
|--7-------5----3---------2----0-------3----5----5-------5-----------------| 
|-----0-0-----0------0-0-----0-----0-0----0----0---0---0---0---------------| 
 

 
|--------------------------------------------------------------------------| 
|--------------------------------------------------------------------------| 
|--9-------7----5---------4----2-------5----7--------7----------9----------| 
|--9-------7----5---------4----2-------5----7----7---5---7------9----------| 
|--7-------5----3---------2----0-------3----5----5-------5------7----------| 
|-----0-0-----0------0-0-----0-----0-0----0----0---0---0---0---------------| 
 

 
|---------------------------------------------------------------------------| 
|---------------------------------------------------------------------------| 
|--9---------11---------12---------11---------9-----7-----------------------| 
|--9-9-9-9-9-9--9-9-9-9-9--9-9-9-9-9--9-9-9-9-9-9-9-9-----------------------| 
|---------------------------------------------------------------------------| 
|---------------------------------------------------------------------------| 
 

Solo: 
 
|--20---------------20------------22-----------------20--------------22~----| 
|------17--20--17------17--20--17----17--20--17---------17--20--17----------| 
|---------------------------------------------------------------------------| 
|---------------------------------------------------------------------------| 
|---------------------------------------------------------------------------| 
|---------------------------------------------------------------------------| 
 

Base: 

 
|---------------------------------------------------------------------------| 
|---------------------------------------------------------------------------| 
|--5------------------------------------5-------------------------------7---| 
|--5-----------------5------4---2-------5-------------------------------7---| 
|--3-3-3-3-3-3-3...--5------4---2-------3-3-3-3-3-3...--5-5-5-5-5-5-5-5-5---| 
|--------------------3------2---0-------------------------------------------| 
 

Refrão: 
 
|----------------------------------------22~-----22--20---------------------| 
|--20~-----19--20--22-20~-----19--20--22-----------------20-15~-------------| 
|---------------------------------------------------------------------------| 
|---------------------------------------------------------------------------| 
|---------------------------------------------------------------------------| 
|---------------------------------------------------------------------------| 
 

 
|---------------------------------------------------------------------------| 
|--20-19-17----19-17-------17-----------------------------------------------| 
|-----------19-------19-17----19-17-16-19-17-16-----------------------------| 
|-----------------------------------------------19--------------------------| 
|---------------------------------------------------------------------------| 
|---------------------------------------------------------------------------| 
 
ou 
 
|---------------------------------------------------------------------------| 
|---------------------------------------------------------------------------| 
|---------------------------------------------------------5------------7----| 
|--5------4------2------4-----5-----5-----7---------------5------------7----| 
|--5------2------2------2-----3-----5-----5-------3-3-3-3-3----5-5-5-5-5----| 
|--3-------------0------------------3---------------------------------------| 
 

 
|---------------------------------------------------------------------------| 
|---------------------------------------------------------------------------| 
|-5-------------------------------------------------------------------------| 
|-5-------------------------------------------------------------------------| 
|-3-----3--2--0-------------5-----------------------------------------------| 
|----------------3--3-3-3-3-3-----------------------------------------------| 
 

Riff 1: 
 
|---------12r--10-12-10-----------------------------------------------------| 
|---12--------------------13-12---10-12-13--------12-0-13-0-12-0-10-0---12~-| 
|-------9-------------------------------------------------------------------| 
|---------------------------------------------------------------------------| 
|---------------------------------------------------------------------------| 
|---------------------------------------------------------------------------| 
 

Outro: 
 
|----------------------------------------------------------0---------------| 
|---------------2----------------------------2-----------0---0-------------| 
|---------2-----------2--------------------2---2-------2-------2-----------| 
|------4-----4----------4----------------4-------4---2-----------0---------| 
|----4--------------------4------------4-----------0-----------------------| 
|--2---------------------------------2-------------------------------------| 
 


 
|--------0-----------------------------------------------------------------| 
|-----3------3----------------------0--------------------------------------| 
|---2----------2-------------1---------------------------------------------| 
|-0------------------------2-----2-----------------------------------------| 
|------------------------2-------------------------------------------------| 
|----------------------0---------------------------------------------------| 
 

Ponte: 
 
|---------------------------------------------------------------------------| 
|---------------------------------------------------------------------------| 
|---------------------------------------------------------------------------| 
|---------------------------------------------------------------------------| 
|---------------------------------7-7-5-5-4-4-5-5-4-4-2-2-4-4-2-2-----------| 
|--2--0--2--2-2-2--5--2--0--------------------------------------------------| 
 
ou 
 
|---------------------------------------------------------------------------| 
|---------------------------------------------------------------------------| 
|---------------------------------------------------------------------------| 
|-----------------------7---7---7---7---7---7---7---7---9---9---9---9-------| 
|---------------------5---5---5---5---5---5---5---5---7---7---7---7---------| 
|--2-0-2-0-2-0-2-0----------------------------------------------------------| 
 

 
|---------------------------------------------------------------------------| 
|---------------------------------------------------------------------------| 
|---------------------------------------------------------------------------| 
|---------------------------------------------------------------------------| 
|--7-7-5-5-4-4-5-5-4-4-2-2-4-4-2-2------------------------------------------| 
|---------------------------------------------------------------------------| 
 

Solo: 
 
|---------------------------------------------------------------------------| 
|---------------------------------------------------------------------------| 
|----------14---------------------------------------------------------------| 
|--16---16----16-12----14-11------14------11--12-11-------------------------| 
|----------------------------14------14-------------14---12-11--------------| 
|---------------------------------------------------------------------------| 
 

 
|---------------------------------------------------------------------------| 
|---------------------------------------------------------------------------| 
|---------------------------------------------------------------------------| 
|-------------9--12--11--9-------------------12--14--12---------------------| 
|--9--11--12----------------12----12--14--16------------16--14--------------| 
|---------------------------------------------------------------------------| 
 

 
|---------------------------------------------------------------------------| 
|---------------------------------------------------------------------------| 
|---------------------------------------------------------------------------| 
|--------------11--14--12--11---------14-12-11----------12-14-16-14-12------| 
|--14--12--11------------------14--------------14-12-11---------------------| 
|---------------------------------------------------------------------------| 
 

 
|---------------------------------------------------------------------------| 
|---------------------------------------------------------------------------| 
|------------------14---13--14--16---14--13------14----13--14--16--14-16--14| 
|-------------------------------------------14------14----------------------| 
|-16-14-12-14-16------------------------------------------------------------| 
|---------------------------------------------------------------------------| 
 

 
|---------------------------------------------------------------------------| 
|--14---12--14--15--17b--17-15-17-------17-17-15-15-14-14-15-15-14-14-------| 
|---------------------------------------------------------------------16-16-| 
|---------------------------------------------------------------------------| 
|---------------------------------------------------------------------------| 
|---------------------------------------------------------------------------| 
 

 
|---------------------------------------------------------------------------| 
|-14-14---------------------------------------------------------------------| 
|-------16-16-14------------------------------------------------------------| 
|---------------------------------------------------------------------------| 
|---------------------------------------------------------------------------| 
|---------------------------------------------------------------------------| 
 

Final: 
 
|---------------------------------------------------------------------------| 
|---------------------------------------------------------------------------| 
|--2---------2--------5-----------------------------------------------------| 
|--2---------2--------5--------3--------5-----------------------------------| 
|--0----0-0--0--------3--------3--------5-----------------------------------| 
|------------------------------1--------3-----------------------------------| 
 

Riff 2: 

 
|---------------------------------------------------------------------------| 
|---------------------------------------------------------------------------| 
|---------------------------------------------------------------------------| 
|--5-------5--------------5-------------5-------------5------5-----5-----5--| 
|--3---3-3-3-3-3-3----3-3-3-3-3-3---3-3-3-3-3-3---3-3-3-3-3--3-3-3-3-3-3-3--| 
|---------------------------------------------------------------------------| 
 

 
|---------------------------------------------------------------------------| 
|---------------------------------------------------------------------------| 
|---------------------------------------------------------------------------| 
|------5-----8-----8-----8-----8--------------------------------------------| 
|--3-3-3-3-3-6-6-6-6-6-6-6-6-6-6----7-------7-------------7-----------------| 
|-----------------------------------5---5-5-5-5-5-5---5-5-5-5-5-5-----------| 
 

 
|---------------------------------------------------------------------------| 
|---------------------------------------------------------------------------| 
|---------------------------------------------------------------------------| 
|---------------------------------------------------------------------------| 
|------7-------------7---------9-------9-------------9-------------9--------| 
|--5-5-5-5-5-5---5-5-5-5-5-5---7---7-7-7-7-7-7---7-7-7-7-7-7---7-7-7-7-7-7--| 
 

 
|---------------------------------------------------------------------------| 
|---------------------------------------------------------------------------| 
|---------------------------------------------------------------------------| 
|---------------------------------------------------------------------------| 
|------9--------------------------------------------------------------------| 
|--7-7-7-7-7-7--------------------------------------------------------------| 
		  

See also:

tabs Simon & Garfunkel - Sounds of silence tabs The Strokes - Juicebox tabs John Mayer - Belief tabs Guns N' Roses - Sweet Child o' mine tabs Guns N' Roses - November Rain tabs Foo Fighters - Everlong (acústico)
e-chords

Other versions:

tabs Theocracy - Absolution Day
auto scroll beats size up size down change color hide chords drawings
tab show chords e-chords YouTube Clip e-chords hide all tabs e-chords go to top tab

share