The Weirdos

Helium Bar

The Weirdos

tabs

by  ALEFFEDERICO

save to print version add songbook text version e-mail correct tuner
chordsukulelecavacokeyboardtabbassdrumsharmonicaflute Guitar Pro
close

there isn't a video lesson for this song

chords

Helium Bar

	  		
Tuning:Half-Step Down (Eb,Ab,Db,Gb,Bb,Eb) 

*Add A Slight Touch Of Flanger Effect 
For The Entire Song. 

Intro x17 
Eb------------| 
Bb------------| 
Gb------------| 
Db-8-8--8-8-8-| 
Ab-8-8--8-8-8-| 
Eb-6-6--6-6-6-| 

verse 1 x4 
Eb---------| 
Bb---------| 
Gb---------| 
Db-8--(8)--| 
Ab-8--(8)--| 
Eb-6--(6)--| 

Interlude 1 x8 
Eb------------| 
Bb------------| 
Gb------------| 
Db-8-8--8-8-8-| 
Ab-8-8--8-8-8-| 
Eb-6-6--6-6-6-| 

verse 2 x4 
Eb------------| 
Bb------------| 
Gb------------| 
Db-8-8--8-8-8-| 
Ab-8-8--8-8-8-| 
Eb-6-6--6-6-6-| 

Pre-Chorus 1 x8 
Eb------------| 
Bb------------| 
Gb------------| 
Db-8-8--8-8-8-| 
Ab-8-8--8-8-8-| 
Eb-6-6--6-6-6-| 

Chorus 1 
Eb---------------------------| 
Bb---------------------------| 
Gb---------------------------| 
Db-6~--8~--6/8--6/8--6/8-6---| 
Ab-6~--8~--6/8--6/8--6/8-6x6-| 
Eb-4~--6~--4/6--4/6--4/6-4---| 

Eb---------------------| 
Bb---------------------| 
Gb---------------------| 
Db-6-6--5-5--3-3--1-1--| 
Ab---------------------| 
Eb---------------------| 
   . .  . .  . .  . . 

Post-Chorus 1 x8 
Eb------------| 
Bb------------| 
Gb------------| 
Db-8-8--8-8-8-| 
Ab-8-8--8-8-8-| 
Eb-6-6--6-6-6-| 

Then 
Eb----- 
Bb----- 
Gb----- 
Db-8~~- 
Ab-8~~- 
Eb-6~~- 

Intro x17 
verse 3 x4 
Interlude 2 x8 
verse 4 x4 
Interlude 3 x8 

Chorus 2 
Eb----------------------------------------| 
Bb----------------------------------------| 
Gb----------------------------------------| 
Db-6~--6-6--5-5--3-3--1-1--6/8--6/8--6/8--| 
Ab-6~----------------------6/8--6/8--6/8--| 
Eb-4~----------------------4/6--4/6--4/6--| 
       . .  . .  . .  . . 

Eb-------------------------| 
Bb-------------------------| 
Gb-------------------------| 
Db-6~--6-6--5-5--3-3--1-1--| 
Ab-6~----------------------| 
Eb-4~----------------------| 
       . .  . .  . .  . . 

Post-Chorus 2 x8 
Intro x17 

Solo (Rhythm)Part 1 x8 
Eb---------------| 
Bb---------------| 
Gb-5-5--5-5-5-5--| 
Db-5-5--5-5-5-5--| 
Ab-3-3--3-3-3-3--| 
Eb---------------| 

Solo (Rhythm) Part 2 x8 
Eb--------------| 
Bb--------------| 
Gb--------------| 
Db-8-8--8-8-8-8-| 
Ab-8-8--8-8-8-8-| 
Eb-6-6--6-6-6-6-| 

Solo (Rhythm) Part 1 x8 

Outro x28 
Eb--------------| 
Bb--------------| 
Gb--------------| 
Db-8-8--8-8-8-8-| 
Ab-8-8--8-8-8-8-| 
Eb-6-6--6-6-6-6-| 

On The 29th Time Let The Chord 
Ring Out & Do A Pick Slide At 
The End 

Eb------| 
Bb------| 
Gb------| 
Db-8~~X\ 
Ab-8~~X\ 
Eb-6~~X\   And Thats The End of The Song. 

Key: 
X\= Pick Slide 
.= Palm Mute 
~=Let Ring Out 
/=Slide Up 
()=Delayed Note 

Here Is A Link To The Song In Case 
You Wanna Play Along To 
It: http://www.youtube.com/watch?v=fba4v2Imfhs 

 
		  

Full key step upFull key step up
Half key step upHalf key step up
Half key step downHalf key step down
Full key step downFull key step down
hide glossary

See also:

tabs Drivin' N' Cryin' - Honeysuckle Blue tabs Ira! - Envelheço na Cidade tabs Deep Purple - Highway Star tabs Albert Hammond Jr - St. Justice tabs Ira! - Prisão das Ruas tabs Deep Purple - Sometimes a Feel Like Screaming
e-chords

Other versions:

tabs The Weirdos - Helium Bar
auto scroll beats size up size down change color hide chords drawings
tab show chords e-chords YouTube Clip e-chords hide all tabs e-chords go to top tab

share