save to print version add songbook text version e-mail correct tuner
chordsukulelecavacokeyboardtabbassdrumsharmonicaflute Guitar Pro
close

there isn't a video lesson for this song

chords

Change

	  		Change - The Warren Brothers 
submitted by Guitar38R 

Intro 
Mandolin starts then electric comes in with 

-0/0-0/0-0/0-0/0--------------------------------------- 
-3/5 5/0 3/5 5/0--------------------------------------- 
------------------2-4-2-0------------------------------ 
------------------------------------------------------- 
------------------------------------------------------- 
------------------------------------------------------- 

E G D A 2x 

E                             D  
Went to see a shrink cause my life is such a mess 
E                        D 
Thanks Mr Frued, now I'm broke and depressed 
E                         D 
I had to start smoking to get off Nicorette 
  D/let ring}                         A 2x 
I put the top down just in time to get wet 


Chorus: 
             E  G    D             A 
One of these days my luck is gonna change 
E                 G          D          A 
they'll think I'm brillant instead of insane 
    E             G             D           A 
Eveything will be different but I'll be the same 
C            D                     E 
One of these days my luck is gonna change 


E G D A 2x 

(These are the same as the first verse and Chorus) 

E                             D  
bought a new shirt as it was going out of style 
E                        D 
stood up a blind date,it was Nicki Dial 
E                         D 
bought a massage so i could relax 
D/let ring}                         A 2x 
big male massuse almost broke my back 


Chorus:  
             E  G    D             A 
One of these days my luck is gonna change 
E                 G          D          A 
they'll think I'm brillant instead of insane 
    E             G             D           A 
Eveything will be different but I'll be the same 
C            D                     E 
One of these days my luck is gonna change 

SOLO 

---------15---------------------------------------15---------------- 
--15s17-----17----12s15---12---15--12------15s17------17------------ 
-------------------------------------------------------------------- 
-------------------------------------------------------------------- 
-------------------------------------------------------------------- 
-------------------------------------------------------------------- 

---------------------------18b-------17b---------------------------- 
--15--15--15---12b------16b------15b-------14b-----12h15p12--------- 
--14--12--14---12b------------------------------------------14b----- 
-------------------------------------------------------------------- 
-------------------------------------------------------------------- 
-------------------------------------------------------------------- 

--------------------------------------------------------12--15--15b----- 
------------------------------------------------12--15------------------ 
--12h14p12-----------------------------12--14--------------------------- 
-----------14------------------12--14----------------------------------- 
------------------------12--14------------------------------------------ 
----------------12--15-------------------------------------------------- 

stand in line pass the time 
live and learn wait my turn A 2x 

             E  G    D             A 
One of these days my luck is gonna change 
E                 G          D          A 
they'll think I'm brillant instead of insane 
    E             G             D           A 
Eveything will be different but I'll be the same 
C            D                     E 
One of these days my luck is gonna change 
             E  G    D             A 
One of these days my luck is gonna change 
E                 G          D          A 
they'll think I'm brillant instead of insane 
    E             G             D           A 
Eveything will be different but I'll be the same 
C            D                     E 
One of these days my luck is gonna change 



ahh could you spare alittle....change 
E/let ring}    E/let ring}  
not sure what this chord is i know its a G but i forget whats its called =/ 

-3--------17--19p17------ 
-3----------------------- 
-0----------------------- 
-0----------------------- 
-2----------------------- 
-3----------------------- 




Solo 


Bridge: 
C              C# 
Stand in line, pass the time 
D               E  
Live and learn, wait my turn 



		  

Full key step upFull key step up
Half key step upHalf key step up
Half key step downHalf key step down
Full key step downFull key step down
hide glossary

See also:

tabs Simpsons - The simpsons tabs Kenny Chesney - I Go Back tabs Alan Jackson - Chattahoochee Correct tabs Lonestar - Amazed tabs Alison Krauss - You Say Nothing At All tabs James Taylor - Youve Got A Friend (ver. 2)
e-chords

Other versions:

tabs Deftones - Change tabs Good Charlotte - Change tabs The Warren Brothers - Change tabs Black Stone Cherry - Change tabs Kopecky Family Band - Change tabs Losing September - Change
auto scroll beats size up size down change color hide chords drawings
tab show chords e-chords YouTube Clip e-chords hide all tabs e-chords go to top tab

share