The Von Bondies

C'mon C'mon

The Von Bondies

tabs Beginner beginner

by  WEEZER PILLOWS

save to print version add songbook text version e-mail correct tuner
chordsukulelecavacokeyboardtabbassdrumsharmonicaflute Guitar Pro
close

there isn't a video lesson for this song

chords

C'mon C'mon

	  		c'mon c'mon  
by the von bondies 
 
Intro  
|----------------------| 
|----------------------| 
|----------------------| 
|---------0-2-2--------|x3 
|--2-3-3---------------| 
|---------------3-5-5--| 
 
|----------------------------| 
|----------------------------| 
|----------------------------| 
|--------------2-2-2--2-2-2--| 
|----------------------------| 
|--1-1-1-3-3-3---------------| 
 
verse / Chorus chords 
 
C, D, A 
C, D, A 
C, D, A 
F, G, E 
 
these chords are played through the whole song  
except for the outro. (below) 
 
C, D, A 
 
That's all folks! 
 
have fun! 

		  

Full key step upFull key step up
Half key step upHalf key step up
Half key step downHalf key step down
Full key step downFull key step down
hide glossary

See also:

tabs Red Hot Chili Peppers - Under the Bridge tabs Eye of the tiger - Eye of the tiger tabs Los Lonely Boys - Heaven tabs Red Hot Chili Peppers - Snow (hey oh) tabs Jeff Buckley - Hallelujah tabs Red Hot Chili Peppers - Venice Queen
e-chords

Other versions:

tabs The Von Bondies - C'mon C'mon tabs Def Leppard - Cmon Cmon (intro)
auto scroll beats size up size down change color hide chords drawings
tab show chords e-chords YouTube Clip e-chords hide all tabs e-chords go to top tab

share