The Von Bondies

Broken Man

The Von Bondies

tabs

by  WEEZER PILLOWS

save to print version add songbook text version e-mail correct tuner
chordsukulelecavacokeyboardtabbassdrumsharmonicaflute Guitar Pro
close

there isn't a video lesson for this song

chords

Broken Man

	  		broken man! 
by the von bondies 
 
STANDARD TUNING 
 
believe it or not, one guitar plays this 
chord through the whole song 
|-----| 
|-----| 
|--2--| 
|--2--| 
|--0--| 
|-----| 
 
The other guitar does this riff... 
|--------------------------| 
|-----1-----------1-3-3-1--| 
|--2-2--2-2-0--2-2---------| 
|--------------------------| 
|--------------------------| 
|--------------------------| 
 
...And this one. 
|--------------------------| 
|-----1-----------1-3-3-1--| 
|--2-2--2-2-0--2-2---------| 
|--------------------------|x2 
|--------------------------| 
|--------------------------| 
 
|-----------------| 
|--4--3-1---1--1--| 
|----------2--2---| 
|-----------------|x2 
|-----------------| 
|-----------------| 
   ^This 4 is played very many times and very fast. 
Use tremolo. 
 
That's all folks! 
 
have fun! 

		  

See also:

tabs Red Hot Chili Peppers - Under the Bridge tabs Eye of the tiger - Eye of the tiger tabs Los Lonely Boys - Heaven tabs Red Hot Chili Peppers - Snow (hey oh) tabs Jeff Buckley - Hallelujah tabs Red Hot Chili Peppers - Venice Queen
e-chords

Other versions:

tabs The Von Bondies - Broken Man tabs Status Quo - Broken Man
auto scroll beats size up size down change color hide chords drawings
tab show chords e-chords YouTube Clip e-chords hide all tabs e-chords go to top tab

share