The Vines

Ride

The Vines

tabs

save to print version add songbook text version e-mail correct tuner
chordsukulelecavacokeyboardtabbassdrumsharmonicaflute Guitar Pro
close

there isn't a video lesson for this song

chords

Ride

Written by Craig Nicholls

	  		 
Intro/Verse (Clean)  
     C#5	               E5  F#5  
E|-------------------------------------  
B|-------------------------------------  
G|---6-6-X-X-6-6-X-X-6-6--\9-9\11-11---  
D|---6-6-X-X-6-6-X-X-6-6--\9-9\11-11---  
A|---4-4-X-X-4-4-X-X-4-4--\7-7\\9--9---  
E|-------------------------------------  
  
Chorus (Distortion)  
     C#5 A5      C#5 A5      C#5 A5      E5    F#5  
E|-----------------------------------------------------  
B|-----------------------------------------------------  
G|---6-6-2-2-2-2-6-6-2-2-2-2-6-6-2-2-2-2---------------  
D|---6-6-2-2-2-2-6-6-2-2-2-2-6-6-2-2-2-2-2-2-2-4-4-4---  
A|---4-4-0-0-0-0-4-4-0-0-0-0-4-4-0-0-0-0-2-2-2-4-4-4---  
E|---------------------------------------0-0-0-2-2-2---  
  
Post Chorus (Distortion ? Slight Phase)  
     C#5		         E5  F#5  
E|-----------------------------------  
B|-----------------------------------  
G|---6-6-X-X-6-6-X-X-6-6-------------  
D|---6-6-X-X-6-6-X-X-6-6---2---4-4---  
A|---4-4-X-X-4-4-X-X-4-4---2---4-4---  
E|-------------------------0---2-2---    
  
Then repeat verse and chorus.  
  
Bridge (Clean)  
  
Guitar 1  
     A5          G5          F#5  
E|-----------------------------------------------------  
B|-----------------------------------------------------  
G|-----------------------------------------------------  
D|---7-7-7-7-7-7-5-5-5-5-5-5-4-4-4-4-4-4-4-4-4-4-4-4---  
A|---7-7-7-7-7-7-5-5-5-5-5-5-4-4-4-4-4-4-4-4-4-4-4-4---  
E|---5-5-5-5-5-5-3-3-3-3-3-3-2-2-2-2-2-2-2-2-2-2-2-2---  
  
Second time round Palm mute F#5 open open it out towards the beginning of solo.  
  
Guitar 2  
     A5          G5          F#5  
E|-----------------------------------------------------  
B|-----------------------------------------------------  
G|-------7-5---------5-3---------4-2---------4-2------- (Not 100% on )  
D|-----------7-5---------5-3---------4-2---------4-2--- (this bit,   )   
A|----------------------------------------------------- (Please help )  
E|---5-5---------3-3---------2-2---------2-2-----------  
  
Solo (Distortion)  
  
E|---------------------------------------------------  
B|---------------------------------------------------  
G|---6b-6b-6b-6b-6b-6b-6b-6b-9b-9b-9b-9b-9b-9b-9b-9b-  
D|---------------------------------------------------  
A|---------------------------------------------------  
E|---------------------------------------------------  
  
E|------------------------------------------------------------------------  
B|------------------------------------------------------------------------  
G|---12b-12b-12b-12b-12b-12b-12b-12b---0\\\\\\\\\\\\\\\\\\\\\\\20-20-20---  
D|------------------------------------------------------------------------  
A|------------------------------------------------------------------------  
E|------------------------------------------------------------------------  
  
Play Intro/Verse clean and then guitar 2 plays this?  
  
E|--------------------------------  
B|--------------------------------  
G|---12-(Sustain then Feedback)---  
D|--------------------------------  
A|--------------------------------  
E|--------------------------------  
  
Repeat Chorus  
  
And end on.  
     C#5  
E|---------  
B|---------  
G|---6-6---  
D|---6-6---  
A|---4-4---  
E|--------- 
 
_______________________________________________________ 
Contribuição: Leonardo Vidotto Poleto([email protected]) 

		  

Full key step upFull key step up
Half key step upHalf key step up
Half key step downHalf key step down
Full key step downFull key step down
auto scroll beats size up size down change color hide chords drawings
tab show chords e-chords YouTube Clip e-chords hide all tabs e-chords go to top tab

share