The Vines

Outatheway

The Vines

tabs

save to print version add songbook text version e-mail correct tuner
chordsukulelecavacokeyboardtabbassdrumsharmonicaflute Guitar Pro
close

there isn't a video lesson for this song

chords

Outatheway

	  		There are many ways in which you can play this song, some people like to use the simple chords 
I.e. A&G but I don?t think that this way gives the song enough depth and I there fore tend to use The following way. 
 
  
Tabbed by Luigino 
 
For the intro, just scratch around a bit and get feedback and randomly cut into this rhythm (I HAVE JUST RECENTLY ADDED A MUCH BETTER INTRO THAT SOUNDS SO MUCH BETTER AT THE BOTTOM OF THE PAGE) 
 
E-------------------------------------------------------- 
B-------------------------------------------------------- 
G----7--7---5--7-7-7--x--10-10-10------------------------ 
D----7--7---5--7-7-7--x--10-10-10------------------------ 
A----5--5---3--5-5-5--x---8---8--8----------------------- 
E-------------------------------------------------------- 
 
Then play the same thing just higher up and based on the 10th fret  
 
E----------------------------------------------------- 
B----------------------------------------------------- 
G-12--12--10-12--12-12---x--15--15--15---------------- 
D-12--12--10-12--12-12---x--15--15--15----------------scroll down 4 better intro 
A-10--10---8--10--10-10---x-13---13--13--------------- 
E---------------------------------------------------- 
 
The chorus is very similar and is played like this 
 
D--7--7--7--10--10--5--5--5---9-9--9----12--12--12-10- 
A--7--7--7--10--10--5--5--5---9-9--9----12--12--12-10- 
E--5--5--5---8---8---3--3--3--7-7--7----10--10--10-8-- 
 
 
 
I think that I have got the solo as accurate as possible to my ability, I am fairly sure that it is played  
Like this. 
 
D-----7---5--------------------------------------------------- 
A-------------7--5~--3-3-0-3--5--7---------------------------- 
E -5-------------------------------------5---5---------------- 
  
And then go into this 
 
D-----7--5--------------------------------------------------- 
A------------7--5~--3-3-0-3--5--7---------------------------- 
E--3------------------------------------3---3---------------- 
 
Then just palm mute the chorus and there you go 
Any comments or improvements please email me at [email protected] 
 

		  

auto scroll beats size up size down change color hide chords drawings
tab show chords e-chords YouTube Clip e-chords hide all tabs e-chords go to top tab

share