The Treatment

Shake The Mountain

The Treatment

tabs

by  ROBEPOIEL

save to print version add songbook text version e-mail correct tuner
chordsukulelecavacokeyboardtabbassdrumsharmonicaflute Guitar Pro
close

there isn't a video lesson for this song

chords

Shake The Mountain

	  		The Treatment 
   -    Shake The Mountain 

Transcribed by Michael Lewis 
   -    Twitter: @MyCool_Lewis 

Notes: 
   -    Tune down one half step 


Main Riff 
eb|--------------------------------------------------------------| 
Bb|--------------------------------------------------------------| 
Gb|-------------------------------------------------------2------| 
Db|-----5---2-----5---2-----0h2-0h2-----5---2-----5---2---2---5--| 
Ab|-----5---2-----5---2-----0h2-0h2-----5---2-----5---2---0---5--| 
Eb|-0-0-3-0-0-0-0-3-0-0-0-0---------0-0-3-0-0-0-0-3-0-0-0---0-3--| 
    . .   .   . .   .   . .         . .   .   . .   .   .   . 

Intro Lead 
eb|-0--0--0--0--0--0-------|--15-------15--------------------| 
Bb|-17-17-17-17-17-17-etc.-|-----17-------17----15h17-15h17--| 
Gb|------------------------|-----------------16--------------| 
Db|------------------------|---------------------------------| 
Ab|------------------------|---------------------------------| 
Eb|------------------------|---------------------------------| 

eb|-15-------15----17--15--| 
Bb|----17-------17---------| 
Gb|------------------------| 
Db|------------------------| 
Ab|------------------------| 
Eb|------------------------| 

Verse 
eb|---------------------------------|---------------------------------| 
Bb|---------------------------------|---------------------------------| 
Gb|---------------------------------|---------------------------------| 
Db|---------------------------------|-----5---2-----5---2-----0h2-0h2-| 
Ab|---------------------------------|-----5---2-----5---2-----0h2-0h2-| 
Eb|-0-0-0-0-0-0-0-0-0-0-0-0-0-0-0-0-|-0-0-3-0-0-0-0-3-0-0-0-0---------| 
    . . . . . . . . . . . . . . . .   . .   .   . .   .   . . 

Pre-Chorus (I see you comin? from a mile away) 
eb|-------------------| 
Bb|-------------------| 
Gb|-2-------4----7----| 
Db|-2-------4----7----| 
Ab|-0-------2----5----| 
Eb|-------------------| 

Chorus (Come on, shake the mountain) 
eb|-------------------------------| 
Bb|-----------3-------------------| 
Gb|-----------2-2-----------------| 
Db|-5----7----0-2-----2--------2--| 
Ab|-5----7----0-0-----2--------2--| 
Eb|-3----5--------3p0-0----3p0-0--| 

Chorus end I (Come on, come on, come on) 
eb|-------------------| 
Bb|-------------------| 
Gb|----------------7--| 
Db|-5----7----5----7--| 
Ab|-5----7----5----5--| 
Eb|-3----5----3-------| 

Chorus end II 
eb|-----------------------------| 
Bb|-----------------------------| 
Gb|--------------------------7--| 
Db|-5----7----5----7----5----7--| 
Ab|-5----7----5----7----5----5--| 
Eb|-3----5----3----5----3-------| 

Solo 
eb|---------------------------------------------| 
Bb|---------------------------------------------| 
Gb|---Coming-Soon-------------------------------| 
Db|---------------------------------------------| 
Ab|---------------------------------------------| 
Eb|---------------------------------------------| 

Altered Verse Post solo verse 
eb|-----------------------------------------------------------------| 
Bb|-----------------------------------------------------------------| 
Gb|-----------------------------------------------------------------| 
Db|---------------------------------7/9-9-9-----7/9-9-9-------------| 
Ab|---------------------------------5/7-7-7-----5/7-7-7-------------| 
Eb|-0-0-0-0-0-0-0-0-0-0-0-0-0-0-0-0---------0-0---------0-0-0-0-0-0-| 
    . . . . . . . . . . . . . . . .         . .         . . . . . . 

Altered Pre-Chorus 
eb|------------------------------------| 
Bb|---------------------8-8-7-7--------| 
Gb|-2-------4----7---7--7-7-7-7--------| 
Db|-2-------4----7---7-----------------| 
Ab|-0-------2----5---5-----------------| 
Eb|------------------------------------| 

Finale 
eb|----------------------| 
Bb|----------------------| 
Gb|----------------------| 
Db|-------2----------2---| 
Ab|-------2----------2---| 
Eb|-3p0-0-0--0-3p0-0-0---| 
        .    .     . 

Legend: 
p - pull off 
h - hammer on 
fb - full bend (one whole step) 
r - release bend 
x - dead note 
/\ - slide up, down 
. - palm mute 
		  

See also:

tabs Scalene - Milhares Como Eu tabs Deep Purple - Never A Word tabs Deep Purple - Smoke On The Water (Intro + solo 01) tabs Ira! - Flerte Fatal (intro e solo) tabs Deep Purple - Deep Purple - Smoke On The Water tabs Deep Purple - Burn
e-chords

Other versions:

tabs The Treatment - Shake The Mountain
auto scroll beats size up size down change color hide chords drawings
tab show chords e-chords YouTube Clip e-chords hide all tabs e-chords go to top tab

share