The Temperance Movement

Oh Lorraine

The Temperance Movement

tabs

by  ANDRSOUZA

save to print version add songbook text version e-mail correct tuner
chordsukulelecavacokeyboardtabbassdrumsharmonicaflute Guitar Pro
close

there isn't a video lesson for this song

chords

Oh Lorraine

	  		 
             PM . .      . .      
e|----------------------------------------| 
B|-----v---v----v-^-v----v-^-v---v---v----| 
G|-----5p0-3p0--0-0-3p0--0-0-3p0-3p0------| 
D|-----------------------------------3p0--| 
A|----------------------------------------| 
E|----------------------------------------| 



0:04-0:08  Solo Guitar 

Intro  
            PM  . .      . .                         . .      . . 
e|----------------------------------------|----------------------------------------| 
B|----------------------------------------|----------------------------------------| 
G|---0-5p0-3p0--0-0-3p0--0-0-3p0-3p0-3p0--|-5p0-3p0--0-0-3p0--0-0-3p0-3p0----------| 
D|----------------------------------------|-------------------------------3p0------| 
A|----------------------------------------|----------------------------------------| 
E|----------------------------------------|----------------------------------------| 


0:09-0:34  Band In 


Verse 
            PM  . .      . .                         . .      . . 
e|----------------------------------------|----------------------------------------| 
B|----------------------------------------|----------------------------------------| 
G|-----5p0-3p0--0-0-3p0--0-0-3p0-3p0-3p0--|-5p0-3p0--0-0-3p0--0-0-3p0-3p0----------| 
D|----------------------------------------|-------------------------------3p0------| 
A|----------------------------------------|----------------------------------------| 
E|----------------------------------------|----------------------------------------| 

            PM  . .      . .                         . .      . . 
e|----------------------------------------|----------------------------------------| 
B|----------------------------------------|----------------------------------------| 
G|-----5p0-3p0--0-0-3p0--0-0-3p0-3p0------|-5p0-3p0--0-0-3p0--0-0-3p0-5p0-3p0------|  X3 
D|-----------------------------------3p0--|----------------------------------------| 
A|----------------------------------------|----------------------------------------| 
E|----------------------------------------|----------------------------------------| 


0:35-0:42 

            PM  . .      . .                         . .      . . 
e|----------------------------------------|----------------------------------------| 
B|----------------------------------------|----------------------------------------| 
G|-----5p0-3p0--0-0-3p0--0-0-3p0-3p0-3p0--|-5p0-3p0--0-0-3p0--0-0-3p0-3p0----------| 
D|----------------------------------------|-------------------------------3p0------| 
A|----------------------------------------|----------------------------------------| 
E|----------------------------------------|----------------------------------------| 

            PM  . .      . .                          
e|----------------------------------------|----------------------------------------| 
B|----------------------------------------|----------------------------------------| 
G|-----5p0-3p0--0-0-3p0--0-0-3p0-3p0------|-----3\---------------------------------| 
D|-----------------------------------3p0--|----------------------------------------| 
A|----------------------------------------|----------------------------------------| 
E|----------------------------------------|----------------------------------------| 


0:43-0:50  Just drums and Vocals (Over a G Chord) 


0:50-0:52         0:50-0:54          0:55-0:58 
     C                 A#                G 
e|-----------|    |-----------|     |-----------| 
B|-----------|    |-----------|     |-----------| 
G|---5-------|    |-----------|     |-----------| 
D|---5-------|    |----8------|     |----5------| 
A|---3-------|    |----8------|     |----5------| 
E|-----------|    |----6------|     |----3------| 


0:58-0:1:00  Vocals only 


1:01-1:28   

            PM  . .      . .                         . .      . . 
e|----------------------------------------|----------------------------------------| 
B|----------------------------------------|----------------------------------------| 
G|-----5p0-3p0--0-0-3p0--0-0-3p0-3p0-3p0--|-5p0-3p0--0-0-3p0--0-0-3p0-3p0----------| 
D|----------------------------------------|-------------------------------3p0------| 
A|----------------------------------------|----------------------------------------| 
E|----------------------------------------|----------------------------------------| 

            PM  . .      . .                         . .      . . 
e|----------------------------------------|----------------------------------------| 
B|----------------------------------------|----------------------------------------| 
G|-----5p0-3p0--0-0-3p0--0-0-3p0-3p0------|-5p0-3p0--0-0-3p0--0-0-3p0-5p0-3p0------|  X3 
D|-----------------------------------3p0--|----------------------------------------| 
A|----------------------------------------|----------------------------------------| 
E|----------------------------------------|----------------------------------------| 


1:28-1:35 

            PM  . .      . .                         . .      . . 
e|----------------------------------------|----------------------------------------| 
B|----------------------------------------|----------------------------------------| 
G|-----5p0-3p0--0-0-3p0--0-0-3p0-3p0-3p0--|-5p0-3p0--0-0-3p0--0-0-3p0-3p0----------| 
D|----------------------------------------|-------------------------------3p0------| 
A|----------------------------------------|----------------------------------------| 
E|----------------------------------------|----------------------------------------| 

            PM  . .      . .                          
e|----------------------------------------|----------------------------------------| 
B|----------------------------------------|----------------------------------------| 
G|-----5p0-3p0--0-0-3p0--0-0-3p0-3p0------|-----3\---------------------------------| 
D|-----------------------------------3p0--|----------------------------------------| 
A|----------------------------------------|----------------------------------------| 
E|----------------------------------------|----------------------------------------| 


1:36-1:43  Just Drums and Vocals (Over a G Chord) 


0:43-0:50  Just drums and Vocals  


1:44-1:46         1:46-1:48          1:48-1:50 
     C                 A#                G 
e|-----------|    |-----------|     |-----------| 
B|-----------|    |-----------|     |-----------| 
G|---5-------|    |-----------|     |-----------| 
D|---5-------|    |----8------|     |----5------| 
A|---3-------|    |----8------|     |----5------| 
E|-----------|    |----6------|     |----3------| 


1:51-0:1:55  Vocals only 


1:56-1:59  (*This is a weird bar, and I don't know if I got it correct) 

            PM  . .      . .      . .          . .  . . 
e|-------------------------------------------------------| 
B|-------------------------------------------------------| 
G|---0-5p0-3p0--0-0-3p0--0-0-3p0--0-0-3p0-3p0--0-0--0-0--| 
D|-------------------------------------------------------| 
A|-------------------------------------------------------| 
E|-------------------------------------------------------| 


1:59-2:15 

            PM  . .      . .                         . .      . . 
e|----------------------------------------|----------------------------------------| 
B|----------------------------------------|----------------------------------------| 
G|-----5p0-3p0--0-0-3p0--0-0-3p0-3p0-3p0--|-5p0-3p0--0-0-3p0--0-0-3p0-3p0----------| 
D|----------------------------------------|-------------------------------3p0------| 
A|----------------------------------------|----------------------------------------| 
E|----------------------------------------|----------------------------------------| 

            PM  . .      . .                         . .      . . 
e|----------------------------------------|----------------------------------------| 
B|----------------------------------------|----------------------------------------| 
G|-----5p0-3p0--0-0-3p0--0-0-3p0-3p0------|-5p0-3p0--0-0-3p0--0-0-3p0-5p0-3p0------|   
D|-----------------------------------3p0--|----------------------------------------| 
A|----------------------------------------|----------------------------------------| 
E|----------------------------------------|----------------------------------------| 

            PM  . .      . .                         . .      . . 
e|----------------------------------------|----------------------------------------| 
B|----------------------------------------|----------------------------------------| 
G|-----5p0-3p0--0-0-3p0--0-0-3p0-3p0-3p0--|-5p0-3p0--0-0-3p0--0-0-3p0-3p0----------| 
D|----------------------------------------|-------------------------------3p0------| 
A|----------------------------------------|----------------------------------------| 
E|----------------------------------------|----------------------------------------| 

            PM  . .      . .                          
e|----------------------------------------|----------------------------------------| 
B|----------------------------------------|----------------------------------------| 
G|-----5p0-3p0--0-0-3p0--0-0-3p0-3p0------|-5p0-6p0-5p0-3p0--5p0-6p0-5p0-3p0-------|   
D|-----------------------------------3p0--|----------------------------------------| 
A|----------------------------------------|----------------------------------------| 
E|----------------------------------------|----------------------------------------| 


2:17-2:33 
  
           PM  . .      . .                         . .      . . 
e|----------------------------------------|----------------------------------------| 
B|----------------------------------------|----------------------------------------| 
G|-----5p0-3p0--0-0-3p0--0-0-3p0-3p0-3p0--|-5p0-3p0--0-0-3p0--0-0-3p0-3p0----------| 
D|----------------------------------------|-------------------------------3p0------| 
A|----------------------------------------|----------------------------------------| 
E|----------------------------------------|----------------------------------------| 

            PM  . .      . .                         . .      . . 
e|----------------------------------------|----------------------------------------| 
B|----------------------------------------|----------------------------------------| 
G|-----5p0-3p0--0-0-3p0--0-0-3p0-3p0------|-5p0-3p0--0-0-3p0--0-0-3p0-5p0-3p0------|   
D|-----------------------------------3p0--|----------------------------------------| 
A|----------------------------------------|----------------------------------------| 
E|----------------------------------------|----------------------------------------| 

            PM  . .      . .                         . .      . . 
e|----------------------------------------|----------------------------------------| 
B|----------------------------------------|----------------------------------------| 
G|-----5p0-3p0--0-0-3p0--0-0-3p0-3p0-3p0--|-5p0-3p0--0-0-3p0--0-0-3p0-3p0----------| 
D|----------------------------------------|-------------------------------3p0------| 
A|----------------------------------------|----------------------------------------| 
E|----------------------------------------|----------------------------------------| 

            PM  . .      . .                          
e|----------------------------------------|----------------------------------------| 
B|----------------------------------------|----------------------------------------| 
G|-----5p0-3p0--0-0-3p0--0-0-3p0-3p0------|-----3\---------------------------------|   
D|-----------------------------------3p0--|----------------------------------------| 
A|----------------------------------------|----------------------------------------| 
E|----------------------------------------|----------------------------------------| 


2:33-2:41  Just Drums and Bass (Over a G Chord) 


2:41-End of Song  
*Note: This is a harmonica part loosely transcribed for guitar 

e|-------------------------------------------| 
B|-------------------------------------------| 
G|---17p0-15p0--0-0-15p0--0-0-15p0--0-0-0-0--| 
D|-------------------------------------------| 
A|-------------------------------------------| 
E|-------------------------------------------| 







************************************ 

| p  Pull-off 
| \  Slide down 
| ^  Downstroke 
| v  Upstroke 

************************************ 
		  

Full key step upFull key step up
Half key step upHalf key step up
Half key step downHalf key step down
Full key step downFull key step down
hide glossary

See also:

tabs Ira! - Prisão das Ruas tabs Deep Purple - Highway Star tabs Deep Purple - Clearly Quite Absurd tabs Drivin' N' Cryin' - Honeysuckle Blue tabs Deep Purple - Ted The Mechanic tabs Deep Purple - Smoke on the Water (correct)
e-chords

Other versions:

tabs The Temperance Movement - Oh Lorraine
auto scroll beats size up size down change color hide chords drawings
tab show chords e-chords YouTube Clip e-chords hide all tabs e-chords go to top tab

share