The Superjesus

Secret Agent Man

The Superjesus

tabs

save to print version add songbook text version e-mail correct tuner
chordsukulelecavacokeyboardtabbassdrumsharmonicaflute Guitar Pro
close

there isn't a video lesson for this song

chords

Secret Agent Man

	  		transcribed by: Steph Edwardes 
notes: 
* Basic chord tab with no timing 
* A highlight track from the bands' new album 'Jet Age'. 
tuning: DADGBE  
-------------------------------------------------------------------------------- 
 
Intro/Verse 
E----------------------| 
B----------------------| 
G-------6--6h7p6-4-6-4-| 
D---6-6-6--------------| 
A---6-5-4--------------| 
D---6-6----------------| 
 
Interludes 
E---------| 
B---------| 
G---9---6-| 
D---9-9-6-| 
A---7-9-4-| 
D-----9---| 
 
Chorus 
E----------------------| 
B----------------------| 
G-------6-9------------| 
D---6-6-6-9------------| 
A---6-5-4-7------------| 
D---6-6----------------| 
 
Solo 
E------------------------------------------------------------| 
B--------------------------------------------------------7---| 
G------4-----4-6~h4----------4----4-6~~h4----------4-6-8-----| 
D--4-6---4-6--------6----4-6---4-6--------6----4-6-----------| 
A------------------------------------------------------------| 
D------------------------------------------------------------| 
 
 

		  

See also:

tabs Powderfinger - Love Your Way tabs Midnight Oil - Hercules tabs John Butler Trio - Ocean tabs Thirsty Merc - Someday, Someday tabs Lee Kernaghan - High Country Solo tabs The Skyhooks - Living In The 70s
e-chords

Other versions:

tabs Devo - Secret Agent Man tabs Johnny Rivers - Secret Agent Man tabs The Superjesus - Secret Agent Man tabs Johnny Rivers - Secret Agent Man (ver. 2)
auto scroll beats size up size down change color hide chords drawings
tab show chords e-chords YouTube Clip e-chords hide all tabs e-chords go to top tab

share