The Superjesus

Now And Then

The Superjesus

tabs

save to print version add songbook text version e-mail correct tuner
chordsukulelecavacokeyboardtabbassdrumsharmonicaflute Guitar Pro
close

there isn't a video lesson for this song

chords

Now And Then

	  		Standard tuning - surprise,surprise! I don't think they actually play with 
standard tuning however this works! 
 
main riff (you can hopefully figure out chord shapes to hold eg for the 6, 
8,6 part barre your first finger on the 6 fret.) 
|--------------------------------------------------------------------------- 
------------------------------------------------------------| 
|--------------------------------------------------------6------------------ 
-----6------------------3-------------------6------------| 
|-----------0----------------------0--------------------------------------0- 
-------0---------0--------0----------------------------| 
|------0--------0------------0--------0----------8---------8---------------- 
--------------------------------------8----------8----| 
|---------------------------------------------6------------------------5---- 
-----------------3------------------6--------------------| 
|--3-------------------6---------------------------------------------------- 
-------------------------------------------------------- --| 
 
 
Chord progression 
|---3---                                         ---6--- 
---8                                     
|---3---                                         ---6--- 
---8 
|---4---                                         ---7--- 
---9        
|---5---   x 3                                 ---8---     x 3 
---0          x3 (note: lift off your little finger D string - so it is open) 
|---5---                                         ---8--- 
---10 
|---3---                                         ---6--- 
---8 
 
HARD CHORD 
 
|---6               ---3               ---x 
|---6               ---5               ---x 
|---7    x3       ---5  x 3        ---5  x3 
|---5               ---5               ---4 
|---6               ---3               ---5 
|---x                ---x               ---x 
NOTES -   Listen to the cd to figure out the rythem - this tab is only very 
bare but it sound okay and you can sing along - just like Patsy Bisco and 
Fat cat! 
Chris Tennet plays a fender strat - he plays it on the first pick up (i.e. 
pick setting to the left) this way he gets a cool mellow ringing. 
 
 
This is my first tab, so please be kind (I did get help with it) - it is 
just my interpretation - I am by no means musically talented but I love my 
guitar! Please send any comments etc to [email protected] Remember - 
support Aussie music -  it always rocks! 
________________________________________________ 
Kate "train hard, eat plenty" Cooper 
"We all go a little mad sometimes, haven't you? "  
Norman Bates, PSYCHO 
 

		  

Full key step upFull key step up
Half key step upHalf key step up
Half key step downHalf key step down
Full key step downFull key step down
hide glossary

See also:

tabs Powderfinger - Love Your Way tabs Midnight Oil - Hercules tabs John Butler Trio - Ocean tabs Thirsty Merc - Someday, Someday tabs Lee Kernaghan - High Country Solo tabs The Skyhooks - Living In The 70s
e-chords

Other versions:

tabs The Superjesus - Now And Then
auto scroll beats size up size down change color hide chords drawings
tab show chords e-chords YouTube Clip e-chords hide all tabs e-chords go to top tab

share