The Strokes

Under Control

The Strokes

tabs Intermediate intermediate

save to print version add songbook text version e-mail correct tuner
chordsukulelecavacokeyboardtabbassdrumsharmonicaflute Guitar Pro
close

there isn't a video lesson for this song

chords

Under Control

	  		tabbed by: dylan (cirano) 
i dont know if this is correct with guitar 1 and 2. 
this is the way my band plays it and it sounds good 
 
guitar 1 
albert 
Verse: 
e-4446-6-6-6-6-6-6--6-6-6664-4-4-4-4-8889-9-9-9-9-898-6-6-6-6- X3 
 
guitar 2 
nick 
Verse/Intro 
:These are not correct rhythms, listen to figure out: 
e---4---6---4---8---9---8---9---8---6 
B---6---7---6---9--11---9--11---9---7 
G---6---8---6--10--11--10--11--10---8 
D---x---x---x---x---x---x---x---x---x 
A---x---x---x---x---x---x---x---x---x 
E---x---x---x---x---x---x---x---x---x 
 
 
Bridge: 
e-----------------2-2-2-2-2-2-2-2- 
B-4-4-4-4-4-4-4-4-----------------  X4 
 
 
 
Solo: 
e-9---9-11-9--9--9-11-13-9- 
B--11----------11----------   X2 
 
 
Outro: 
e-13-11-14-13-11-9- 
		  

See also:

tabs The Doors - People Are Strange tabs The Offspring - The Kids Aren't Alright tabs Jack Johnson - Upside down tabs Guns N' Roses - November Rain (Ver. Acoustic) tabs Jack Johnson - Banana Pancakes (ver. 3) tabs Guns N' Roses - You Could Be Mine
e-chords

Other versions:

tabs The Strokes - Under Control tabs The Internet - Under Control tabs The Strokes - Under Control (ver. 2) tabs The Strokes - Under Control (ver. 3)
auto scroll beats size up size down change color hide chords drawings
tab show chords e-chords YouTube Clip e-chords hide all tabs e-chords go to top tab

share