The Strokes

home > The Strokes

50/50 Tab

The Strokes

Difficulty: BeginnerBeginner

by adalgomes

tuner correct add songbook print version text version save to e-mail
chordsukulelecavacokeyboardtabbassdrumsharmonicsflute Guitar Pro
chords

50/50

  		

Intro: 
e|--------------------------------|   |------------------| 
B|--------------------------------|   |------------------| 
G|-----6-------4----6----4--------|x2 |------6--------4--| x4 
D|--------4h6---------------6--4--|   |---------4h6------| 
A|--4-----------------------------|   |--4---------------| 
E|--------------------------------|   |------------------| 

Verse: 
e|--------------------------------------------------------------------| 
B|-----------------------4--------------------------------------------| 
G|-----6---------------4-------6--------6-------4----6----4-----------|x4 
D|--------4h6------------------------------4h6---------------6--4-----| 
A|-------------6---4-----------------4--------------------------------| 
E|--4-----------------------------------------------------------------| 

Chorus: 
e|---------------------------------------------------------------------------| 
B|-------------------7-7-7-7-7-7-7-7-----------------10-10-10-10-10-10-10-10-| 
G|---5-5-5-5-5-5-5-5-6-6-6-6-6-6-6-6-6-6-6-6-6-6-6-6-9--9--9--9--9--9--9--9--|x4 
D|---6-6-6-6-6-6-6-6-4-4-4-4-4-4-4-4-6-6-6-6-6-6-6-6-7--7--7--7--7--7--7--7--| 
A|---6-6-6-6-6-6-6-6-----------------4-4-4-4-4-4-4-4-------------------------| 
E|---4-4-4-4-4-4-4-4---------------------------------------------------------| 

e|-----------------------------------------| 
B|-----------------------------------------| 
G|---5-5-5-5--4-4-4-5-----5-5-5-5--4-4-4-4-|x2 
D|---6-6-6-6--4-4-4-6-----6-6-6-6--4-4-4-4-| 
A|---6-6-6-6--2-2-2-6-----6-6-6-6--2-2-2-2-| 
E|---4-4-4-4--------4-----4-4-4-4----------| 

Outro: 
e|------------| 
B|------------| 
G|---6--------|Strum this until song ends 
D|---6--------| 
A|---4--------| 
E|------------| 
 
	  

Search Paypal
auto scroll beats size up size down change color hide chords drawings
tab show chords e-chords YouTube Clip e-chords hide all tabs e-chords go to top tab