The Spazzys

Paco Doesn't Love Me

The Spazzys

tabs

save to print version add songbook text version e-mail correct tuner
chordsukulelecavacokeyboardtabbassdrumsharmonicaflute Guitar Pro
close

there isn't a video lesson for this song

chords

Paco Doesn't Love Me

	  		Transcribed: 14th April 2004 
 
Notes: This song is roaring up the Triple J Net 50 chart 
at the moment - it's a really fun song to play along to! 
 
INTRO: 
E-|----------------|- 
B-|----------------|- 
G-|----------------|- 
D-|----------------|-(x 4) 
A-|----------------|- 
E-|--3/5-5-5-5-5-5-|- 
 
E-|--------------------------------------------------------------|- 
B-|--------------------------------------------------------------|- 
G-|----------------7--7-7--9--9-9----------------7--7-7--9--9-9--|- 
D-|--5/7-7-7-7-7-7-7--7-7--9--9-9--5/7-7-7-7-7-7-7--7-7--9--9-9--|- 
A-|--5/7-7-7-7-7-7-5--5-5--7--7-7--5/7-7-7-7-7-7-5--5-5--7--7-7--|- 
E-|--3/5-5-5-5-5-5-----------------3/5-5-5-5-5-5-----------------|- 
 
E-|------------------------------------------------------------|- 
B-|------------------------------------------------------------|- 
G-|--------------7--7-7--9--9-9--------------------------------|- 
D-|--4--4-4-4-4--7--7-7--9--9-9--------------------------------|- 
A-|--4--4-4-4-4--5--5-5--7--7-7--------------------------------|- 
E-|--2--2-2-2-2-------------------3/5-5-5-5-5-5--3/5-5-5-5-5-5-|- 
 
1ST VERSE CHORDS: 
    A5  D5  E5  D5 (x 2) 
E-|-----------------|--------------------------------|- 
B-|-----------------|--------------------------------|- 
G-|-----7---9---7---|--------------------------------|- 
D-|-7---7---9---7---|--------------------------------|- 
A-|-7---5---7---5---|--------------------------------|- 
E-|-5---------------|---3/5-5-5-5-5-5--3/5-5-5-5-5-5-|- 
 
1ST CHORUS: 
E-|-----------------------------------------------------|- 
B-|-----------------------------------------------------|- 
G-|-7--7-7-7-7--9--9-9-9-9--------------11--11-11-11-11-|- 
D-|-7--7-7-7-7--9--9-9-9-9--7--7-7-7-7--11--11-11-11-11-|- 
A-|-5--5-5-5-5--7--7-7-7-7--7--7-7-7-7--9---9--9--9--9--|- 
E-|-------------------------5--5-5-5-5------------------|- 
 
E-|------------------------------------------------------|- 
B-|------------------------------------------------------|- 
G-|-7--7-7-7-7--9--9-9-9-9-------------------------------|- 
D-|-7--7-7-7-7--9--9-9-9-9-------------------------------|- 
A-|-5--5-5-5-5--7--7-7-7-7-------------------------------|- 
E-|-------------------------3/5-5-5-5-5-5--3/5-5-5-5-5-5-|- 
 
E-|---------------------------------------|- 
B-|---------------------------------------|- 
G-|-7--7-7-7-7--9--9-9-9-9----------------|- 
D-|-7--7-7-7-7--9--9-9-9-9--7---5---4---2-|- 
A-|-5--5-5-5-5--7--7-7-7-7--7---5---4---2-|- 
E-|-------------------------5---3---2---0-|- 
 
E-|-------------------------------------------------|- 
B-|-------------------------------------------------|- 
G-|-7--7-7-7-7--9-----------------------------------|- 
D-|-7--7-7-7-7--9-----------------------------------|- 
A-|-5--5-5-5-5--7-----------------------------------|- 
E-|--------------------3/5-5-5-5-5-5--3/5-5-5-5-5-5-|- 
 
E-|--------------------------------------------------------------|- 
B-|--------------------------------------------------------------|- 
G-|----------------7--7-7--9--9-9----------------7--7-7--9--9-9--|- 
D-|--5/7-7-7-7-7-7-7--7-7--9--9-9--5/7-7-7-7-7-7-7--7-7--9--9-9--|- 
A-|--5/7-7-7-7-7-7-5--5-5--7--7-7--5/7-7-7-7-7-7-5--5-5--7--7-7--|- 
E-|--3/5-5-5-5-5-5-----------------3/5-5-5-5-5-5-----------------|- 
 
E-|------------------------------------------------------------|- 
B-|------------------------------------------------------------|- 
G-|--------------7--7-7--9--9-9--------------------------------|- 
D-|--4--4-4-4-4--7--7-7--9--9-9--------------------------------|- 
A-|--4--4-4-4-4--5--5-5--7--7-7--------------------------------|- 
E-|--2--2-2-2-2-------------------3/5-5-5-5-5-5--3/5-5-5-5-5-5-|- 
 
2ND VERSE CHORDS: 
    A5  D5  E5  D5 (x 2) 
E-|-----------------|--------------------------------|- 
B-|-----------------|--------------------------------|- 
G-|-----7---9---7---|--------------------------------|- 
D-|-7---7---9---7---|--------------------------------|- 
A-|-7---5---7---5---|--------------------------------|- 
E-|-5---------------|---3/5-5-5-5-5-5--3/5-5-5-5-5-5-|- 
 
2ND CHORUS: 
E-|-----------------------------------------------------|- 
B-|-----------------------------------------------------|- 
G-|-7--7-7-7-7--9--9-9-9-9--------------11--11-11-11-11-|- 
D-|-7--7-7-7-7--9--9-9-9-9--7--7-7-7-7--11--11-11-11-11-|- 
A-|-5--5-5-5-5--7--7-7-7-7--7--7-7-7-7--9---9--9--9--9--|- 
E-|-------------------------5--5-5-5-5------------------|- 
 
E-|------------------------------------------------------|- 
B-|------------------------------------------------------|- 
G-|-7--7-7-7-7--9--9-9-9-9-------------------------------|- 
D-|-7--7-7-7-7--9--9-9-9-9-------------------------------|- 
A-|-5--5-5-5-5--7--7-7-7-7-------------------------------|- 
E-|-------------------------3/5-5-5-5-5-5--3/5-5-5-5-5-5-|- 
 
E-|---------------------------------------|- 
B-|---------------------------------------|- 
G-|-7--7-7-7-7--9--9-9-9-9----------------|- 
D-|-7--7-7-7-7--9--9-9-9-9--7---5---4---2-|- 
A-|-5--5-5-5-5--7--7-7-7-7--7---5---4---2-|- 
E-|-------------------------5---3---2---0-|- 
 
E-|-------------------------------------------------|- 
B-|-------------------------------------------------|- 
G-|-7--7-7-7-7--9-----------------------------------|- 
D-|-7--7-7-7-7--9-----------------------------------|- 
A-|-5--5-5-5-5--7-----------------------------------|- 
E-|--------------------3/5-5-5-5-5-5--3/5-5-5-5-5-5-|- 
 
SOLO OVER THESE CHORDS: 
E-|-----------------------------------------------------|- 
B-|-----------------------------------------------------|- 
G-|-7--7-7-7-7--9--9-9-9-9--------------11--11-11-11-11-|- 
D-|-7--7-7-7-7--9--9-9-9-9--7--7-7-7-7--11--11-11-11-11-|- 
A-|-5--5-5-5-5--7--7-7-7-7--7--7-7-7-7--9---9--9--9--9--|- 
E-|-------------------------5--5-5-5-5------------------|- 
 
E-|------------------------------------------------------|- 
B-|------------------------------------------------------|- 
G-|-7--7-7-7-7--9--9-9-9-9-------------------------------|- 
D-|-7--7-7-7-7--9--9-9-9-9-------------------------------|- 
A-|-5--5-5-5-5--7--7-7-7-7-------------------------------|- 
E-|-------------------------3/5-5-5-5-5-5--3/5-5-5-5-5-5-|- 
 
E-|---------------------------------------|- 
B-|---------------------------------------|- 
G-|-7--7-7-7-7--9--9-9-9-9----------------|- 
D-|-7--7-7-7-7--9--9-9-9-9--7---5---4---2-|- 
A-|-5--5-5-5-5--7--7-7-7-7--7---5---4---2-|- 
E-|-------------------------5---3---2---0-|- 
 
E-|-------------------------------------------------|- 
B-|-------------------------------------------------|- 
G-|-7--7-7-7-7--9-----------------------------------|- 
D-|-7--7-7-7-7--9-----------------------------------|- 
A-|-5--5-5-5-5--7-----------------------------------|- 
E-|--------------------3/5-5-5-5-5-5--3/5-5-5-5-5-5-|- 
 
THEN REPEAT CHORUS 
 
Lyrics: 
 
Hey there, Paco you Italian fiend 
Why aren't you in love with me?  
I've got a killer crush on you 
And it's something that I just can't endure 
I know Paco's kind of retarded  
He's left me here all broken hearted 
I want him to be my main man 
He wants another girl to hold his hand 
 
So Hey Paco baby don't you know you break my heart 
So sugar do the right thing just c'mon be my retard 
You're looking kind of cool  
I write your name on all my desks at school 
I wanna see your band 
I wanna make you understand 
That I wanna hold your hand 
But there's nothing I can do to convince you 
Cos Paco doesn't love me. 
 
And you know I'm not the only one 
Whose heart pounds when Paco plays his drums 
Cos hits the skins as fast as Marky 
I wish he hit my skin that quickly 
Hey there Paco you Italian fiend 
Why aren't you in love with me? 
I've got a killer crush on you 
And it's something that I just can't endure 
 
 

		  

Full key step upFull key step up
Half key step upHalf key step up
Half key step downHalf key step down
Full key step downFull key step down
hide glossary

See also:

tabs John Butler Trio - Attitude tabs The Dissociatives - Horror With Eyeballs tabs Wolfmother - Woman tabs Pete Murray - Tonic tabs Virgin Black - Our Wings Are Burning tabs Russell Morris - On The Wings Of An Eagle
e-chords

Other versions:

tabs The Spazzys - Paco Doesn't Love Me
auto scroll beats size up size down change color hide chords drawings
tab show chords e-chords YouTube Clip e-chords hide all tabs e-chords go to top tab

share