The Silent Comedy

Bartholomew

The Silent Comedy

tabs Beginner beginner

by  UBIRBOMFIM

save to print version add songbook text version e-mail correct tuner
chordsukulelecavacokeyboardtabbassdrumsharmonicaflute Guitar Pro
close

there isn't a video lesson for this song

chords

Bartholomew

	  		

VERSE
 
e|---------------------------------------------------------------------------| 
B|---------------------------------------------------------------------------| 
G|---------------------------------------------------------------------------| 
D|---------------------------------------------------------------------------| 
A|---------------------------------------------------------------------------| 
E|---------------------------------------------------------------------------| 
Oh my God, please help me... 

CHORUS
 
e|---------------------------------------------------------------------------| 
B|---------------------------------------------------------------------------| 
G|----------------------------7------------------------7---------------------| 
D|------------------------------------------------10-------------------------| 
A|-------------------------------8---10---10h11h12--------8---10---10p8------| 
E|---------------------------------------------------------------------10----| 
...hell to pay, sayin'... 

VERSE 

e|---------------------------------------------------------------------------| 
B|---------------------------------------------------------------------------| 
G|---5/7-7-10~----5/7-7-14~----5/7-7-10~----5/7-7-14~----5/7-7-10~-----------| 
D|---5/7-7-10~----5/7-7-14~----5/7-7-10~----5/7-7-14~----5/7-7-10~-----------| 
A|---3/5-5-8~-----3/5-5-12~----3/5-5-8~-----3/5-5-12~----3/5-5-8~------------| 
E|---------------------------------------------------------------------------| 
Oh my God, please help me... 

e|---------------------------------------------------------------------------| 
B|---------------------------------------------------------------------------| 
G|---/7~----7\5-5~----5\3-3~-------------------------------------------------| 
D|---/7~----7\5-5~----5\3-3~-------------------------------------------------| 
A|---/5~----5\3-3~----3\1-1~-------------------------------------------------| 
E|---------------------------------------------------------------------------| 
I've rambled with the worst of them...                  ...starin' back again 

CHORUS 

e|---------------------------------------------------------------------------| 
B|---------------------------------------------------------------------------| 
G|---7------------------------7--------------------7-------------------------| 
D|-----------------------10--------------------------------------------------| 
A|------8---10---10h11h12--------8---10---10p8--------8---10---10h11h12------| 
E|--------------------------------------------10-----------------------------| 

e|---------------------------------------------------------------------------| 
B|---------------------------------------------------------------------------| 
G|---------------------------------------------------------------------------| 
D|---------------------------------------------------------------------------| 
A|------8-10-11-12-10p8-10p8-------------------------------------------------| 
E|---10----------------------10----------------------------------------------| 

VERSE 

e|---------------------------------------------------------------------------| 
B|---------------------------------------------------------------------------| 
G|---5/7-7-10-----5/7-7-14-----5/7-7-10-----5/7-7-14-----5/7-7-10------------| 
D|---5/7-7-10-----5/7-7-14-----5/7-7-10-----5/7-7-14-----5/7-7-10------------| 
A|---3/5-5-8------3/5-5-12-----3/5-5-8------3/5-5-12-----3/5-5-8-------------| 
E|---------------------------------------------------------------------------| 
Oh my god, please help me... 

e|---------------------------------------------------------------------------| 
B|---------------------------------------------------------------------------| 
G|---/7~----7\5-5~----5\3-3~-------------------------------------------------| 
D|---/7~----7\5-5~----5\3-3~-------------------------------------------------| 
A|---/5~----5\3-3~----3\1-1~-------------------------------------------------| 
E|---------------------------------------------------------------------------| 
Ate the bread that once was stone...                    ...and the fire grows 

BRIDGE 

e|---------------------------------------------------------------------------| 
B|---------------------------------------------------------------------------| 
G|---19-19-17--------------------------19-19-17-------------------17---------| 
D|------------19-17-15-17-17-17-15--------------19-17-15-17-17-17----19------| 
A|---------------------------------17----------------------------------------| 
E|---------------------------------------------------------------------------| 
La la la la la la la la la la la... 

e|---------------------------------------------------------------------------| 
B|---------------------------------------------------------------------------| 
G|---19-19-17---------------------------------12-13-14-12----12--------------| 
D|------------19-17-15-17-17-17-15------12-15-------------15----15-12--------| 
A|---------------------------------17----------------------------------------| 
E|---------------------------------------------------------------------------| 

Repeat from "La la la" until the outro or add in: 

e|---------------------------------------------------------------------------| 
B|---------------------------------------------------------------------------| 
G|---7------------------------7--------------------7-------------------------| 
D|-----------------------10--------------------------------------------------| 
A|------8---10---10h11h12--------8---10---10p8--------8---10---10h11h12------| 
E|--------------------------------------------10-----------------------------| 

OUTRO 
e|---------------------------------------------------------------------------| 
B|---------------------------------------------------------------------------| 
G|---------12-13-14-12----12------------------12-13-14-12----12--------------| 
D|---12-15-------------15----15-12----12-15---------------15----15-12--12~---| 
A|---------------------------------------------------------------------------| 
E|---------------------------------------------------------------------------|  
		  

auto scroll beats size up size down change color hide chords drawings
tab show chords e-chords YouTube Clip e-chords hide all tabs e-chords go to top tab

share