The Shadows

In the mood

The Shadows

tabs Expert expert

by  EUROPEU

save to print version add songbook text version e-mail correct tuner
chordsukulelecavacokeyboardtabbassdrumsharmonicaflute Guitar Pro
close

there isn't a video lesson for this song

chords

In the mood

	  		   C        
E |-------------------------|-------------| 
B |-------------------------|-------------| 
G |-----------2-3-4-5-------|-------------| 
D |--5-4-5-6----------------|-------------| 
A |--------------------3~---|-------------| 
E |-------------------------|-------------| 
 
     C                                                   F7 
E |-------------|-----------|-------------|-----------|-------------|----------| 
B |----1---1----|-1----1--1-|----1---1----|-1---1--1--|----1---1----|-1---1--1-| 
G |---0---0---0-|----0------|---0---0---0-|----0------|---2---2---2-|----2-----| 
D |--2---2---2--|---2-------|--2---2---2--|---2-------|--3---3---3--|---3------| 
A |-------------|-----------|-------------|-----------|-------------|----------| 
E |-------------|-----------|-------------|-----------|-------------|----------| 
 
     C                         G7 
E |-------------|-----------|-------------|-----------|| 
B |----1---1----|-1---1--1--|----3---3----|-3---3--3--|| 
G |---0---0---0-|----0------|---4---4---4-|----4------|| 
D |--2---2---2--|---2-------|--5---5---5--|---5-------|| 
A |-------------|-----------|-------------|-----------|| 
E |-------------|-----------|-------------|-----------|| 
 
E |-----------------------------------| 
B |---------------------------2-3-4-5-| 
G |-----------2-3-4-5--5-4--5---------| 
D |--5-4-5-6--------------------------| 
A |-----------------------------------| 
E |-----------------------------------| 
 
    F   Dm7   Gm/C#    C7           F   Dm7   Gm       C7 
E |---------|--------------------|----------|--------------------| 
B |-6---6~--|------6--9h10-9h10--|--6---6~--|------6--9h10-9h10--| 
G |---7-----|----7---------------|----7-----|----7---------------| 
D |---------|--8-----------------|----------|--8-----------------| 
A |---------|--------------------|----------|--------------------| 
E |---------|--------------------|----------|--------------------| 
                                   
     F   Dm7   Gm/C#    C7       F                   Gm       C 
E |----------|----------------|-------------------|-----------------| 
B |--6---6~--|------6--9-h10--|-------------------|-----------------| 
G |----7-----|----7-----------|-------------------|-----------------| 
D |----------|--8-------------|-------------------|-----------------| 
A |----------|----------------|-------------------|-----------3--3--| 
E |----------|----------------|--1-1-1-1-1-1-1-2--|--3-3-3-3--------| 
                                           
     F   Dm7   Gm       C7        F   Dm7   Gm       C7 
E |----------|-----------------|----------|---------/6\--| 
B |--6---6~--|------6--9b10-8--|--6---6~--|------6--/8\--| 
G |----7-----|----7------------|----7-----|----7---------| 
D |----------|--8--------------|----------|--8-----------| 
A |----------|-----------------|----------|--------------| 
E |----------|-----------------|----------|--------------| 
                                       
     F   Dm7   Gm7    C7       F        G 
E |----------|---------------|--------|------------| 
B |--6---6~--|-----6--9-h10--|--6-----|------------| 
G |----7-----|---7-----------|--------|------------|   
D |----------|-8-------------|------4-|-5--3-2--0--| 
A |----------|---------------|--------|------------| 
E |----------|---------------|--------|------------| 
 
 
     C                                                   F7 
E |-------------|-----------|-------------|-----------|-------------|----------| 
B |----1---1----|-1----1--1-|----1---1----|-1---1--1--|----1---1----|-1---1--1-| 
G |---0---0---0-|----0------|---0---0---0-|----0------|---2---2---2-|----2-----| 
D |--2---2---2--|---2-------|--2---2---2--|---2-------|--3---3---3--|---3------| 
A |-------------|-----------|-------------|-----------|-------------|----------| 
E |-------------|-----------|-------------|-----------|-------------|----------| 
 
     C                         G7 
E |-------------|-----------|-------------|-----------| 
B |----1---1----|-1---1--1--|----3---3----|-3---3--3--| 
G |---0---0---0-|----0------|---4---4---4-|----4------| 
D |--2---2---2--|---2-------|--5---5---5--|---5-------| 
A |-------------|-----------|-------------|-----------| 
E |-------------|-----------|-------------|-----------| 
 
                       C        
E |-------------------------|-------------| 
B |-------------------------|-------------| 
G |-----------2-3-4-5-------|-------------| 
D |--5-4-5-6----------------|-------------| 
A |--------------------3~---|-------------| 
E |-------------------------|-------------| 
 
 
     C 
E |---------------|--------------|---------------|--------------|          
B |--/11--11--10--|--------------|--/11--11--10--|--------------|  
G |--/12--12--10--|--12-12-------|--/12--12--10--|--12-12-------|  
D |---------------|--13-13--10~--|---------------|--13-13--10~--| 
A |---------------|--------------|---------------|--------------| 
E |---------------|--------------|---------------|--------------| 
 
     F                               C 
E |---------------|--------------|---------------|--------------| 
B |--/11--11--10--|--------------|--/11--11--10--|--------------| 
G |--/12--12--10--|--12-12-------|--/12--12--10--|--12-12-------| 
D |---------------|--13-13--10~--|---------------|--13-13--10~--| 
A |---------------|--------------|---------------|--------------| 
E |---------------|--------------|---------------|--------------| 
 
     G 
E |--10------10-10----10--|------10--10-10--| 
B |--11------11-11----11--|------11--11-11--| 
G |------12---------------|--12-------------| 
D |-----------------------|-----------------| 
A |-----------------------|-----------------| 
E |-----------------------|-----------------| 
 
                       C 
E |-------------------------|-------------| 
B |-------------------------|-------------| 
G |-----------2-3-4-5-------|-------------| 
D |--5-4-5-6----------------|-------------| 
A |--------------------3~---|-------------| 
E |-------------------------|-------------| 
 
 
     C                                                   F7 
E |-------------|-----------|-------------|-----------|-------------|----------| 
B |----1---1----|-1----1--1-|----1---1----|-1---1--1--|----1---1----|-1---1--1-| 
G |---0---0---0-|----0------|---0---0---0-|----0------|---2---2---2-|----2-----| 
D |--2---2---2--|---2-------|--2---2---2--|---2-------|--3---3---3--|---3------| 
A |-------------|-----------|-------------|-----------|-------------|----------| 
E |-------------|-----------|-------------|-----------|-------------|----------| 
 
     C                         G7 
E |-------------|-----------|-------------|-----------| 
B |----1---1----|-1---1--1--|----3---3----|-3---3--3--| 
G |---0---0---0-|----0------|---4---4---4-|----4------| 
D |--2---2---2--|---2-------|--5---5---5--|---5-------| 
A |-------------|-----------|-------------|-----------| 
E |-------------|-----------|-------------|-----------| 
 
                                               C 
E |------------------|----------------------|---------| 
B |------------------|----------------------|---------| 
G |-----------2-3-4--|--5-5--4-5--3---------|---------| 
D |--5-4-5-6---------|--------------5--3-1--|---------| 
A |------------------|----------------------|--3~-----| 
E |------------------|----------------------|---------| 
  
  
    
  

		  

Full key step upFull key step up
Half key step upHalf key step up
Half key step downHalf key step down
Full key step downFull key step down
hide glossary

See also:

tabs Eric Clapton - Wonderful Tonight tabs Eric Clapton - Hey, Hey tabs The Beatles - Yesterday tabs Eagles - Hotel California tabs Deep Purple - Highway Star tabs The Beatles - Blackbird
e-chords

Other versions:

tabs The Shadows - In the mood
auto scroll beats size up size down change color hide chords drawings
tab show chords e-chords YouTube Clip e-chords hide all tabs e-chords go to top tab

share