The Rolling Stones

home > The Rolling Stones

Play with fire Tab

The Rolling Stones

Difficulty: BeginnerBeginner

by Andre%5FPC

tuner correct add songbook print version text version save to e-mail
chordsukulelecavacokeyboardtabbassdrumsharmonicsflute Guitar Pro
chords

Play with fire

  		From: Halli TH ([email protected]) 
 
 
Intro:  
  G       D       G      C       Em          Em7   Em 
|-------------2----------------0---------0------0--------------| 
|-----0---------3-----0------1---------0---0-3-----0-------0---| 
|-----------2--------------0---------0---------------0---0---0-| 
|---0-----0---------0--------------2-------------------2-------| 
|------------------------3-------------------------------------| 
|-3---------------3--------------0-----------------------------| 
 
 
 
Verse: (stroke down and up) 
 
  Well you got youre dimonds 
|-0----0---3---0-----0--0---0---0---0---0-| 
|-3----0---0---0-----3--0---0---0---0---0-| 
|-0----0---0---0-----0--0---0---0---0---0-| 
|-2----2---2---2-----2--2---2---2---2---2-| 
|-2----2---2---2-----2--2---2---2---2---2-| 
|-0----0---0---0-----0--2---0---0---0---0-| 
 
 
Chorus: (only one stroke on G, D, G and C)              
            
Em         G     D     G               C            Em(////)Em7(/)Em(////)         
but donīt  Play  with  me, cause youre playing with fire 
 
 
The end: 
  Fire 
|-0--------0--| 
|-0------0----| 
|-0----0------| 
|-2--2--------| 
|-2-----------| 
|-0-----------| 
 
 
Lyrics and how it goes: 
 
Intro: 
 
Verse 1: 
Well, you've got your diamonds  
and you've got your pretty clothes 
And the chauffeur drives your car 
You let everybody know 
 
Chorus 1: 
But don't play with me, 'cause you're playing with fire 
 
Verse 2: 
Your mother she's a heiress,  
owns a block in Saint John's Wood 
And your father'd be there with her 
If he only could 
 
Chorus 2: 
But don't play with me, 'cause you're playing with fire 
 
Intro: 
 
Verse 3: 
Your old man took her diamonds  
and tiaras by the score 
Now she gets her kicks in Stepney 
Not in Knightsbridge anymore 
 
Chorus 3: 
So don't play with me, 'cause you're playing with fire 
 
Verse 4: 
Now you've got some diamonds 
and you will have some others 
But you'd better watch your step, girl 
Or start living with your mother 
 
Chorus 4: 
So don't play with me, 'cause you're playing with fire 
So don't play with me, 'cause you're playing with fire 

	  

Full key step upFull key step up
Half key step upHalf key step up
Half key step downHalf key step down
Full key step downFull key step down
Search Paypal
auto scroll beats size up size down change color hide chords drawings
tab show chords e-chords YouTube Clip e-chords hide all tabs e-chords go to top tab