The Rolling Stones

home > The Rolling Stones

Hang Fire Tab

The Rolling Stones

Difficulty: nolevelnolevel

by terr%5Fschmitz

tuner correct add songbook print version text version save to e-mail
chordsukulelecavacokeyboardtabbassdrumsharmonicsflute Guitar Pro
chords

Hang Fire

Year: 1981 - Album: Tattoo You

  		 Intro 
  Q=152 
  N.C.       D                                           A 
 4/4 
  Gtr I 
                                                                       PM| 
  W          H      Q          +E  Q.     +E  +E      H.             
|----------|-------------------|------------------------|------------------| 
|----------|-------------------|------------------------|------------------| 
|----------|--------------4b6==|=(4)-4------(4)r(4)-2---|-2----------------| 
|----------|-------------------|------------------------|------------------| 
|----------|-------------------|------------------------|--------------0-0-| 
|----------|-------------------|------------------------|------------------| 
| 
| Gtr II 
| W          Q                                       
|----------|-------------------|------------------------|------------------| 
|----------|-------------------|------------------------|------------------| 
|----------|--------7-7-7-7----|--9--9--9-9--9---9--9---|------------------| 
|----------|-7--9-7-7-7-7-7----|--9--9--9-9--9---9--9---|-2----2---2---2-2-| 
|----------|-5--5-5-5-5-5-5----|--7--7--7-7--7---7--7---|-0----0---0---0-0-| 
|----------|-------------------|------------------------|------------------| 


  F#m               D                                     A 
  PM----------------| 
            Q.     E +E  Q.       Q   Q   H        Q.   E +H 
|-----------------|---------------------|----------------|-------------------| 
|-----------------|---------------------|----------------|-------------------| 
|-----------------|-2------2-(2)--------|-----4----------|-------------------| 
|-4---------------|-0------0-(0)-0------|-2-------2------|-2----2-(2)--------| 
|-0---0-0-0-0-0-0-|---------------------|----------------|-0----0-(0)--------| 
|-----------------|---------------------|----------------|-------------------| 
| 
|                              E Q    H            
|-----------------|---------------------|----------------|-------------------| 
|-----------------|---------------------|-------9--------|-------------------| 
|-----------------|-----------7-----7---|-------9---9-9--|-------------------| 
|-4---4---4---4---|-7----7-7--7-----7-7s|=9---9-----9-9--|---------2----2-2--| 
|-0---0---0---0-0-|-5----5-5--5-----5-5s|=7-7-------7-7--|-0-------0----0-0--| 
|-----------------|---------------------|----------------|-------------------| 


  F#m                  D 
  Q.     E +H          Q.     E +Q.      
|--------------------|--------------------| 
|--------------------|--------------------| 
|--------------------|-2------2-(2)-------| 
|-4------4-(4)-------|-0------0-(0)-----0-| 
|-0------0-(0)-------|--------------------| 
|--------------------|--------------------| 
| 
|                         
|--------------------|--------------------| 
|--------------------|--------------------| 
|--------------------|-----------7--------| 
|-4----4----4----4---|-7----7-7--7----7-7-| 
|-0----0----0----0-0-|-5----5-5--5----5-5-| 
|--------------------|--------------------| 


                    1st Verse 
                    A 
  W                          
|-----------------||------------------| 
|-----------------||------------------| 
|-4---------------||------------------| 
|-2---2p0-2p0-2p0-||------------------| 
|-----------------||-0-0-0-0-0-0-0-0--| 
|-----------------||------------------| 
| Q         
| 
|                        PM--------| 
|    E Q        Q         
|-----------------||------------------| 
|-----------------||------------------| 
|-----------------||------------------| 
|-9---9-9-----9---||-2-------2---2----| 
|-7---7-7-----7---||-0---0-0-0---0-0--| 
|-----------------||------------------| 


  F#m               D                                    A 
  PM------------------------------| 
                      Q    E +E  Q      Q.   E +H 
|-----------------|-----------------|-------------------|-------------------| 
|-----------------|-----------------|-------------------|-------------------| 
|-----------------|-------------2---|-4-----4-(4)-------|-------------------| 
|-----------------|-0-0-0-0-0-0-0-0-|-2---2-2-(2)-2---2-|------2-(2)--------| 
|-0-0-0-0-0-0-0-0-|-----------------|-------------------|-0----0-(0)--------| 
|-----------------|-----------------|-------------------|-------------------| 
| 
|                          Q        H            
|-----------------|-----------------|-------------------|-------------------| 
|-----------------|-----------------|-------------------|-------------------| 
|-----------------|---------7---7---|-----9-9-----------|-------------------| 
|-4---4---4-4-4---|-7---7-7-7---7---|-9---9-9-------9---|-2-------2--2-2-2--| 
|-0---0---0-0-0---|-5---5-5-5---5---|-7---7-7-------7---|-0-------0--0-0-0--| 
|-----------------|-----------------|-------------------|-------------------| 


  F#m                  D 
  Q.     E +Q.        Q.     E +Q.      
|--------------------|--------------------| 
|--------------------|--------------------| 
|--------------------|-2------2-(2)-------| 
|-4------4-(4)-----4-|-0------0-(0)-----0-| 
|-0------0-(0)-----0-|--------------------| 
|--------------------|--------------------| 
| 
|                         
|--------------------|--------------------| 
|--------------------|--------------------| 
|--------------------|------7----7--7-7---| 
|-4--4-4----4--4-4---|-7--7-7----7--7-7---| 
|-0--0-0----0--0-0---|-5--5-5----5--5-5---| 
|--------------------|--------------------| 


                    2nd Verse 
                    A 
                     PM------------| 
  Q   Q   Q   Q              
|-----------------||------------------| 
|-----------------||------------------| 
|-4---4---4---4---||------------------| 
|-2---2---2---2---||------------------| 
|-----------------||-0-0-0-0-0-0-0-0--| 
|-----------------||------------------| 
| 
|                    
|-----------------||------------------| 
|-----------------||------------------| 
|-9---9---9---9---||------------------| 
|-9---9---9---9---||-2---2-----2---2--| 
|-7---7---7---7---||-0---0-----0---0--| 
|-----------------||------------------| 


  F#m               D                                      A 
  PM------------|           PM| 
                          +E         Q.    E +H 
|-----------------|-----------------|---------------------|--------------------| 
|-----------------|-----------------|---------------------|--------------------| 
|-----------------|-2-----2-----2---|---4b6r(4)p2---------|--------------------| 
|-----------------|-0-----0-0-0-0---|-------------4p2-----|-------2-(2)--------| 
|-0-0-0-0-0-0-0-0-|-----------------|-----------------4p2p|=0-----0-(0)--------| 
|-----------------|-----------------|---------------------|--------------------| 
| 
|                            E H         Q           
|-----------------|-----------------|---------------------|--------------------| 
|-----------------|-----------------|---------------------|--------------------| 
|-----------------|-7---7-7-7-7-7---|-9-9----9------------|-------------2------| 
|-4---4-----4-4---|-7---7-7-7-7-7---|-9-9----9------------|-----2-2--2--2-2----| 
|-0---0-----0-0---|-5---5-5-5-5-5---|-7-7----7------------|-----0-0--0--0-0----| 
|-----------------|-----------------|---------------------|--------------------| 


  F#m                  D                                 A 
  Q.     E +Q.        Q.     E +H          H      H      Q         
|--------------------|--------------------|-------------|------------------| 
|--------------------|--------------------|-------------|------------------| 
|--------------------|-2------2-(2)-------|-4------4----|-------2----------| 
|-4------4-(4)-------|-0------0-(0)-------|-2------2----|-------------2----| 
|-0------0-(0)-----0-|--------------------|-------------|-0---0-----0-0-0--| 
|--------------------|--------------------|-------------|------------------| 
| 
|                  E +E        E Q  H      Q.         
|--------------------|--------------------|-------------|------------------| 
|--------------------|--------------------|-------------|------------------| 
|--------------------|-7------7-(7)-7-7-7-|-9-9---------|------------------| 
|-4----4-4--4----4---|-7------7-(7)-7-7-7-|-9-9---------|-2-----2-2---2----| 
|-0----0-0--0----0-0-|-5------5-(5)-5-5-5-|-7-7---------|-0-----0-0---0----| 
|--------------------|--------------------|-------------|------------------| 


  F#m                  D 
  Q.     E +E       Q.     E +E  Q    
|--------------------|--------------------| 
|--------------------|--------------------| 
|--------------------|-2------2-(2)-2-----| 
|-4------4-(4)-------|-0------0-(0)-----0-| 
|-0------0-(0)-0-0-0-|--------------------| 
|--------------------|--------------------| 
| 
|                         
|--------------------|--------------------| 
|--------------------|--------------------| 
|--------------------|----------------7---| 
|-4----4-4--4----4---|-7----7----7--7-7---| 
|-0----0-0--0----0---|-5----5----5--5-5---| 
|--------------------|--------------------| 


                    Guitar Solo 
                    A 
  H        E Q         e Q          
|-----------------||-8b9-5-------8pb9-5----| 
|-----------------||--------------------5--| 
|-4-------4s5p0---||-----------------------| 
|-2---------------||-----------------------| 
|-----------------||-----------------------| 
|-----------------||-----------------------| 
| 
|                         
|-----------------||-----------------------| 
|-----------------||-----------------------| 
|-9---9---9---9---||-----------------------| 
|-9---9---9---9---||-2---2-2---2------2----| 
|-7---7---7---7---||-0---0-0-0-0-0----0-0--| 
|-----------------||-----------------------| 


  F#m                   D 
     E Q                           
|-8b9-5-------------5-|-8b9-5-------8b9-5-------| 
|-----------------5---|-----------5-----------5-| 
|-------------7b9-----|-------7b8---------7b8---| 
|---------------------|-------------------------| 
|---------------------|-------------------------| 
|---------------------|-------------------------| 
| 
|                               
|---------------------|-------------------------| 
|---------------------|-------------------------| 
|---------------------|-7-----7-----7-----7-----| 
|-4---------4-----4---|-7-----7-----7-----7-----| 
|-0---0-0-0-0-0---0-0-|-5---5-5---5-5---5-5---5-| 
|---------------------|-------------------------| 


                         A 
             E Q     Q.       E +Q    Q 
|-8b9-5-------8b9-5-5---|-8--------8-(8)---8--------| 
|-----------5-----------|-7b7.5------------7b7.5----| 
|-------7b9-------------|---------------------------| 
|-----------------------|---------------------------| 
|-----------------------|---------------------------| 
|-----------------------|---------------------------| 
| 
|                 Q                  
|-----------------------|---------------------------| 
|-----------------------|---------------------------| 
|-9---9-----------------|------------------------2--| 
|-9---9-----------------|-2-----------2----------2--| 
|-7---7-7---7-7---7-7-0-|-0------0-0--0--0-0-----0--| 
|-----------------------|---------------------------| 


  F#m                    D 
   Q                                   
|--8-------5---5---5---|-8-----5---8-----5---8-----5-| 
|--7b7.5---5---5---5-0-|-7b7.5-5---7b7.5-5---7b7.5---| 
|------------7---7-----|-----------------------------| 
|----------------------|-----------------------------| 
|----------------------|-----------------------------| 
|----------------------|-----------------------------| 
| 
| +E                                  
|----------------------|-----------------------------| 
|----------------------|-----------------------------| 
|-(2)----------2---2---|-7---------------7---7-------| 
|-(2)------4---2---2-0-|-7-------9-7-----7---7-------| 
|-(0)----0-0---0-------|-5-------5-------5-5-5-------| 
|----------------------|-----------------------------| 


                            Bridge 
                            Am 
                             +E   +H        
|---8-----5---8-------8---||-12-------------------12----| 
|---7b7.5-5---7b7.5---7---||-12b13.5-(12)-(12)----------| 
|-------------------------||----------------------------| 
|-------------------------||----------------------------| 
|-------------------------||----------------------------| 
|-------------------------||----------------------------| 
| 
|              E Q       H.                     
|-------------------------||----------------------------| 
|-------------------------||-13-------------------13----| 
|-9-------9---9-----------||-14-------------------14----| 
|-9-------9---9-----------||-14-------------------14----| 
|-7-------7---7-----------||-12-------------------12----| 
|-0-----------0-----------||----------------------------| 


                                 Am 
         +Q          +Q             +E       +E   +E       +Q           
|---------------12--------------|-12----------------------------------12-------| 
|-12b14==(12)------12r=(12)-----|-12b14r(12)b14==(12)r(12)b13==(12)r--12pb13---| 
|-------------------------------|----------------------------------------------| 
|-------------------------------|----------------------------------------------| 
|-------------------------------|----------------------------------------------| 
|-------------------------------|----------------------------------------------| 
| 
|             E +Q       Q      H.                                        
|-------------------------------|----------------------------------------------| 
|--9-------------9-(9)----------|-13----------------------------------13-------| 
|--9-------------9-(9)----------|-14----------------------------------14-------| 
|--9-------------9-(9)----------|-14----------------------------------14-------| 
|--7-------------7-(7)----------|-12----------------------------------12-------| 
|--0-------------0-(0)----------|----------------------------------------------| 


                                 Am 
           +Q     +E   +Q   Q     H.             Q 
|-------------------------------|-12-------------------| 
|-12b13.5==(12)r==(12)-(12)-----|-12b13----------------| 
|-------------------------------|----------------------| 
|-------------------------------|----------------------| 
|-------------------------------|----------------------| 
|-------------------------------|----------------------| 
| 
|                    H         H              
|-------------------------------|-12-------12----------| 
|--9----------------------------|-13----------13-------| 
|--9----------------9-----------|-14-------------14----| 
|--9----------------9-----------|-14-------------------| 
|--7----------------7-----------|-12-------------------| 
|--0----------------0-----------|----------------------| 


                                D 
   Q        +E   +E   +Q.             Q                    
|-12---------------------------|----------------------------------| 
|-12b14====(12)r(12)-(12)------|-------10----------10-------10----| 
|------------------------------|-12b14-------12b13----12b13-----0-| 
|------------------------------|----------------------------------| 
|------------------------------|----------------------------------| 
|------------------------------|----------------------------------| 
| 
|                 +Q   Q                              
|------------------------------|-------------10-------10----------| 
|-----------------9---(9)------|----------10-------------------10-| 
|--9--------------9---(9)------|--9s===11----------11-------11----| 
|--9--------------9---(9)------|----------------------------------| 
|--7--------------7---(7)------|----------------------------------| 
|--0---------------------------|----------------------------------| 


                                          Chorus 
                                          A 
                                           PM------------| 
                                           
|---------------------------------------||-----------------| 
|----12-------12-------12-------12------||-----------------| 
|----14b16----14b16----14b16----14b16---||-----------------| 
|---------------------------------------||-------------2-2-| 
|---------------------------------------||-0-0-0-0-0-0-0-0-| 
|---------------------------------------||-----------------| 
| 
|                                          PM------------| 
|  a                                       
|----------12----------12---------------||-----------------| 
|-------------12-------------12---------||-----------------| 
|-11s13-------------13----------13\-----||-----------------| 
|---------------------------------------||-2-------2---2-2-| 
|---------------------------------------||-0---0-0-0-0-0---| 
|---------------------------------------||-----------------| 


  F#m               D 
  PM------------|     PM|   PM| 
                 E Q 
|-----------------|-----------------| 
|-----------------|-----------------| 
|-----------------|-2-----2-----2---| 
|-4-------4---4---|-0-0-0-0-0-0-0---| 
|-0-0-0-0-0-0-0-0-|-----------------| 
|-----------------|-----------------| 
| 
|               E Q    
|-----------------|-----------------| 
|-----------------|-----------------| 
|-----------------|---7-----7-7-----| 
|-4-------4---4---|-7-7---7-7-7---7-| 
|-0-0-0-0-0-0-0-0-|-5---5-5-5-5---5-| 
|-----------------|-----------------| 


                                     A 
                                      PM------------| 
     +E     +E  +E     +E  +E              
|-----------------------------------|------------------| 
|-----------------------------------|------------------| 
|-4b6r(4)b6==(4)r(4)b6==(4)r(4)-2---|------------------| 
|-----------------------------------|-------2----------| 
|-----------------------------------|-0-0-0-0-0-0-0-0--| 
|-----------------------------------|------------------| 
| 
|                                     
|-----------------------------------|------------------| 
|-----------------------------------|------------------| 
|-------------9---9----------9--9---|------------------| 
|------9------9---9----------9--9---|-----2-2-x-2-2-x--| 
|------7------7---7------7---7--7---|-0-0-0-0-x-0-0-x--| 
|-0---------------------------------|------------------| 


  F#m               D 
  PM------------|     PM|   PM 
                    
|-----------------|-----------------| 
|-----------------|-----------------| 
|-----------------|-2-----2---2-2---| 
|-4-----4-----4---|-0-0-0-0-0-0-0---| 
|-0-0-0-0-0-0-0-0-|-----------------| 
|-----------------|-----------------| 
| 
| PM 
|                   
|-----------------|-----------------| 
|---------------0-|-----------------| 
|---------------0-|-7---7-----7-7-7-| 
|-4---4---2-4-x---|-7---7-7-7-7-7-7-| 
|-0---0-0-0-0-x---|-5-------5-5-5-5-| 
|-----------------|-----------------| 


                           Outro 
                           A 
                            PM---------------| 
       +Q    +Q.                    
|-5----------------------||---------------------| 
|------------------------||---------------------| 
|---4b6==(4)r==(4)-------||---------------------| 
|------------------------||-2---------2----2----| 
|------------------------||-0--0-0-0--0--0-0-0--| 
|------------------------||---------------------| 
| 
| PM-----------------| 
|                   Q.     E +Q    Q 
|------------------------||---------------------| 
|------------------------||---------------------| 
|------------------------||--------2-(2)---2----| 
|-9-------9--9--9----9---||-2------2-(2)---2----| 
|-7-7-----7--7--7--7-7---||-0------0-(0)---0----| 
|------------------------||---------------------| 


  F#m               D 
  Q.   E +Q       Q   E +E     
|-----------------|------------------| 
|-----------------|------------------| 
|-------------2---|-2----2-(2)-2-----| 
|-4----4-(4)--2-4-|-0--0-0-(0)-0-4p2-| 
|-0----0-(0)----0-|------------------| 
|-----------------|------------------| 
| 
| Q.   E +Q       Q          
|-----------------|------------------| 
|-----------------|------------------| 
|---------------0-|----7-7--7--x-7-7-| 
|-4----4-(4)--4-0-|-7--7-7--7--x-7-7-| 
|-0----0-(0)--0---|-5--5----5----5-5-| 
|-----------------|------------------| 


                       A 
                                        PM| 
       +E        +Q.     E +E     
|---------------------|----------------------| 
|---------------------|----------------------| 
|---4-(4)-------------|----------------------| 
|------2--(2)-2p0h4-2-|-(2)-----2-(2)---2----| 
|-------------------0-|-(0)-----0-(0)-0-0-0--| 
|---------------------|----------------------| 
| 
|                               PM--------| 
|    Q      Q                   
|---------------------|----------------------| 
|---------------------|----------------------| 
|---9--9------9-----0-|----------------------| 
|---9--9------9---9-0-|--2------2-------2-2--| 
|---7--7------7---7---|--0--0-0-0--0--0-0-0--| 
|-0-0-----------------|----------------------| 


  F#m                D 
  Q.            Q.            
|------------------|--------------------| 
|------------------|--------------------| 
|------------------|-2---------2----2---| 
|-4------4-----4---|-0------0-(0)-0-0-0-| 
|-0------0-0-0-0-0-|--------------------| 
|------------------|--------------------| 
| 
| PM------------------------------------- 
|                       
|------------------|--------------------| 
|------------------|--------------------| 
|------------------|--------------------| 
|-4----4-4---4-----|-7--7---7-----7-----| 
|-0--0-0-0-0-0-0-0-|-5--5-5-5--5--5-5-5-| 
|------------------|--------------------| 


                          A 
      +E    E +E      Q.    E +H 
|----------5-------------|--------------------| 
|------------------------|--------------------| 
|-4b6==(4)-----4r(4)p2---|--------------------| 
|----------------------4-|-2-----2-(2)--------| 
|------------------------|-0-----0-(0)--------| 
|------------------------|--------------------| 
| 
|------------------------------------------| 
|                  Q           
|------------------------|--------------------| 
|------------------------|--------------------| 
|------------------------|--------------------| 
|-9-----9----9----9------|-2---2-2--x--2------| 
|-7-----7--7-7-7--7--7-7-|-0---0-0--x--0-0-0--| 
|------------------------|--------------------| 


  F#m                   D                                    A 
                                                              PM------------| 
  Q.    E +E  E a     Q.       E a     Q   Q  Q   Q             
|---------------------|--------------------|----------------|------------------| 
|---------------------|--------------------|----------------|------------------| 
|-------------------2-|-------^2-2-------0-|-4---4--4---4---|------------------| 
|-4-----4-(4)---2s4---|-0-----^0---0-2s4---|-2---2--2---2---|---------2-----2--| 
|-0-----------0-------|--------------------|----------------|-0-0-0-0-0-0-0-0--| 
|---------------------|--------------------|----------------|------------------| 
| 
| PM-----------------------------|                            PM------------| 
| Q               Q               E Q        Q         
|---------------------|--------------------|----------------|------------------| 
|---------------------|--------------------|----------------|------------------| 
|---------------------|----------------7-7-|---9-9--9-9-9-x-|------------------| 
|-4---4-4--x--4-------|-7---7--7-x-7---7-7-|---9-9--9-9-9-x-|-2---2-x-2-2------| 
|-0---0-0--x--0---0-0-|-5---5--5-x-5---5-5-|---7-7--7-7-7---|-0---0-x-0-0-0-0--| 
|---------------------|--------------------|-----0--0-------|------------------| 


  F#m               D                                 A 
  PM------------------------------|                    PM-----| 
                      Q   Q   Q  Q     Q        
|-----------------|-----------------|----------------|-----------------| 
|-----------------|-----------------|----------------|-----------------| 
|-----------------|-2-----2-2---2---|-4---4---4--4---|-----------------| 
|-4-------4-------|-0-0-0-0-0-0-0-0-|-2---2---2--2---|-2----------2h4--| 
|-0-0-0-0-0-0-0-0-|-----------------|----------------|-0--0-0-0-0-0----| 
|-----------------|-----------------|----------------|-----------------| 
| 
| PM------------------------------| 
|                        E Q      Q        
|-----------------|-----------------|----------------|-----------------| 
|-----------------|-----------------|---9-9-9-9------|-----------------| 
|-----------------|-----------------|---9-9-9-9------|-----------------| 
|-4-----4---4-----|-7-7---7-7-7---7-|-9-9-9-9-9--9-x-|-2--2---2-2------| 
|-0-0-0-0-0-0-0-0-|-5-5-5-5-5-5-5-5-|-7-7-7-7-7--7-x-|-0--0-0-0-0-0-0--| 
|-----------------|-----------------|----------------|-----------------| 


  F#m                D                                    A 
  H              Q.     E +H          Q   Q   Q   Q    Q.    E +H 
|------------------|--------------------|----------------|--------------------| 
|------------------|--------------------|----------------|--------------------| 
|------------------|-2------2-(2)-------|-4---4---4---4--|--------------------| 
|-4----------4-----|-0------0-(0)-------|-2---2---2---2--|-2-----2-(2)--------| 
|-0-------0--0-0-0-|--------------------|----------------|-0-----0-(0)--------| 
|------------------|--------------------|----------------|--------------------| 
| 
| Q   E +E                         E Q    Q           
|------------------|--------------------|----------------|--------------------| 
|------------------|--------------------|---9------------|--------------------| 
|------------------|------7-------------|---9---------9--|--------------------| 
|-4----4-(4)-4-----|-7--7-7-7--7--7-7-7s|=9-9-----9-9-9--|-2-----2-----2------| 
|-0--0-0-(0)-0-0-0-|-5--5-5-5--5--5-5-5s|=7-7-7-7-7-7-7--|-0---0-0--0--0-0-0--| 
|------------------|--------------------|----------------|--------------------| 


  F#m                 D                                   A 
  Q.    E +H             E +H          Q   Q  Q   Q     Q.   E +H 
|-------------------|-------------------|----------------|------------------| 
|-------------------|-------------------|----------------|------------------| 
|-------------------|-2-----2-(2)-------|-4---4--4---4---|-2----2-(2)-------| 
|-4-----4-(4)-------|-0-0-0-0-(0)-------|-2---2--2---2---|-2----2-(2)-------| 
|-0-----0-(0)-------|-------------------|----------------|------------------| 
|-------------------|-------------------|----------------|------------------| 
| 
|                                                                      PM| 
| Q                          E Q        H.            
|-------------------|-------------------|----------------|------------------| 
|-------------------|-------------------|----------------|------------------| 
|-------------------|-------------------|---9-9--9---9---|------------------| 
|-4---4-4-----4-----|-7-7---7--7----7-7s|=9-9-9--9---9---|-2----------------| 
|-0---0-0--0--0-0-0-|-5-5-5-5--5--5-5-5s|=7-7-7--7-7-7---|-0-----------0-0--| 
|-------------------|-------------------|---0-0----------|------------------| 


  F#m               D                                  A 
  Q.     E +H            E Q     Q   Q   Q   Q     Q.    E +H 
|-----------------|-----------------|-----------------|--------------------| 
|-----------------|-----------------|-----------------|--------------------| 
|-----------------|-2-2---2-----2---|-4---4---4---4---|--------------------| 
|-4------4-(4)----|-0---0-0-0-0-0---|-2---2---2---2---|-2-----2-(2)--------| 
|-0------0-(0)----|-----------------|-----------------|-0-----0-(0)--------| 
|-----------------|-----------------|-----------------|--------------------| 
| 
|     E +H        E Q                   Q           
|-----------------|-----------------|-----------------|--------------------| 
|-----------------|-----------------|-----------------|--------------------| 
|-----------------|-----------------|-----------------|--------------------| 
|-4--4-x-4-(4)----|-7-7-7---7---7-7s|=9-9-x-9-x-9-9-x-|-2---2-2--x--2------| 
|-0--0-x-0-(0)----|-5-5-5---5-5-5-5s|=7-7-x-7-x-7-7-x-|-0---0-0--x--0-0-0--| 
|-----------------|-----------------|-----------------|--------------------| 


  F#m                     D 
  Q.       +Q    +Q      Q.     E +Q    Q 
|-----------------------|--------------------| 
|-----------------------|--------------------| 
|--------4--(4)---------|-2------2-(2)---2---| 
|-4-----(4)-(4)---(4)---|-0------0-(0)---0---| 
|-0-----(0)-(0)---(0)---|--------------------| 
|-----------------------|--------------------| 
| 
| Q                            
|-----------------------|--------------------| 
|-----------------------|--------------------| 
|-----------------------|--------------7-----| 
|-4---4--4---x--4-------|-7--7-7-7--7--7-7---| 
|-0---0--0---x--0--0--0-|-5--5-5-5--5--5-5-5-| 
|-----------------------|--------------------| 


                    A 
  Q   q    Q   q      q  Q  H        W 
|------------------|-------------|---------*| 
|------------------|-------------|---------*| 
|-4---4----4---4---|-------------|---------*| 
|-2---2----2---2---|--2----------|---------*| 
|------------------|--0----------|---------*| 
|------------------|-------------|---------*| 
| 
|    E +Q        W             +W 
|------------------|-12----------|-(12)----*| 
|------------------|-13----------|-(13)----*| 
|---9-9-9-(9)--x---|-14----------|-(14)----*| 
|-9-9-9-9-(9)--x---|-------------|---------*| 
|-7-7-7-7-(7)--x---|-------------|---------*| 
|------------------|-------------|---------*|  
	  

Full key step upFull key step up
Half key step upHalf key step up
Half key step downHalf key step down
Full key step downFull key step down
Search Paypal
auto scroll beats size up size down change color hide chords drawings
tab show chords e-chords YouTube Clip e-chords hide all tabs e-chords go to top tab