The Rolling Stones

home > The Rolling Stones

Dandelion Tab

The Rolling Stones

Difficulty: nolevelnolevel

by hommer%5Fnew

tuner correct add songbook print version text version save to e-mail
chordsukulelecavacokeyboardtabbassdrumsharmonicsflute Guitar Pro
chords

Dandelion

Year: 2002 - Album: Through The Past, Darkly (Big Hits Vol. 2)

(Mick Jagger and Keith Richards)

  		Guitar Tuned 1 whole step down  
	Low to High 
        DGCFAD 
Bb	X32010 
Gm	X02210 
Eb	133211 
C	XX0232 
C7	XX0212 
G7	X02020 
F7	320001 
Csus4	XX0233 
 
Verse Pattern 
Bb 
Prince   or    pau   per      beg  gar   man   or 
|-----3-----3-----3-----3--|-----3-----3-----3-----3--|	 
|--------6-----5-----3-----|--1-----0-----------------| 
|--0-----------------------|--------------2-----0-----| 
|--------------------------|--------------------------| 
|--------------------------|--------------------------| 
|--------------------------|--------------------------| 
 
C 
Thing 
|--2--2--2--2--2--2--2--2--|--2--2--2--2--2--2--2--2--| 
|--3--3--3--3--3--3--3--3--|--3--3--3--3--3--3--3--3--| 
|--2--2--2--2--2--2--2--2--|--2--2--2--2--2--2--2--2--| 
|--------------------------|--------------------------| 
|--------------------------|--------------------------| 
|--------------------------|--------------------------| 
 
Chorus 
Bb                     Gm 
Dandelion don't tell no lies 
Eb                 C 
Dandelion will make you wise 
Bb              Gm  
Tell me if she laughs or cries 
Eb                 C7 
Blow away dandelion 
 
 
Bridge 
Eb               G7 
Blow Away Dandelion 
            C                          G7 
Tho' you're older now its just the same 
          C                 G7  
You can play this dandelion game 
            C                                  F7 
When you're finished with your childlike prayers 
F7                               G7 
Well, you know you should wear it 
 
Oboe Solo 
G7                      C                       G7    
/         /     /       /  /  /  /     /  /  /  /  /  /  /  /  /  /  / 
 
C                       G7                      C 
/  /  /  /  /  /  /  /  /  /  /  /  /  /  /  /  /  /  /  /  /  /  /  / 
 
F7 
/  // /  /  /  /  /  /  /  // /  /  /  /  /  /   
 
 
 
Ending                
|-----3-----3-----3-----3--|-----3-----3-----3-----3--|	 
|--------6-----5-----3-----|--1-----0-----------------| 
|--0-----------------------|--------------2-----0-----| 
|--------------------------|--------------------------| 
|--------------------------|--------------------------| 
|--------------------------|--------------------------| 
 
|--------3-----------3-----|-----3-----3-----3-----3--|	 
|--------------0-----------|--1-----3-----1-----0-----| 
|--2-----------------------|--------------------------| 
|--------------------------|--------------------------| 
|--------------------------|--------------------------| 
|--------------------------|--------------------------| 
 
Order to play= 
Verse Pattern 2x 
Chorus 
Verse Pattern 2x 
Chorus 
Bridge 
Oboe Solo 
Verse Pattern 2x 
Chorus
Verse Pattern (first two bars only) 
Ending (repeat ad lib and fade) 
	  

Full key step upFull key step up
Half key step upHalf key step up
Half key step downHalf key step down
Full key step downFull key step down
Search Paypal
auto scroll beats size up size down change color hide chords drawings
tab show chords e-chords YouTube Clip e-chords hide all tabs e-chords go to top tab