The Replacements

Last Thing In The World Tab

The Replacements

Difficulty: nolevelnolevel

by terr%5Fschmitz

tuner correct add songbook print version text version save to e-mail
chordsukulelecavacokeyboardtabbassdrumsharmonicsflute Guitar Pro
close

there isn't a video lesson for this song

request
chords

Last Thing In The World

  		Intro 

e|------------------------| 
B|-2-1--------------------| 
G|-----3--1--3-1--3-1-0---| 
D|----------------------3-| x1 
A|------------------------| 
E|------------------------| 
                                 
Verse 

e|-----------------------------------------------------------| 
B|-----------------------------------------------------------| 
G|-5--5-5-5-5-5-5-3/5-5-5--7-5/7-7-7-7-7-7-7-5/7-7-7-5/7-7-7-| 
D|-5--5-5-5-5-5-5-3/5-5-5--7-5/7-7-7-7-7-7-7-5/7-7-7-5/7-7-7-| x2 
A|-3--3-3-3-3-3-3-----3-3----3/5-5-5-5-5-5-5-3/5-5-5-3/5-5-5-| 
E|-----------------------------------------------------------| 
      * * * * * *     * *        * * * * * *     * *     * * 

Pre-Chorus 

e|------------------------------------------------| 
B|------------------------------------------------| 
G|-5--55--5-55-5--55--5-55-7--77--7-77-7--77-7-77-| 
D|-5--55--5-55-5--55--5-55-7--77--7-77-7--77-7-77-| x1 
A|-3--33--3-33-3--33--3-33-5--55--5-55-5--55-5-55-| 
E|------------------------------------------------| 

Chorus 

e|--------------------------------------------------------------------| 
B|--------------------------------------------------------------------| 
G|8--8-8-8-8-8-8-8-------------------------------------8--8-8-8-8-8-8-| 
D|8--8-8-8-8-8-8-8-6--6-6-6-6-6-6-6--8--8-8-8-8-8-8-8--8--8-8-8-8-8-8-| x2 
A|6--6-6-6-6-6-6-6-6--6-6-6-6-6-6-6--8--8-8-8-8-8-8-8--6--6-6-6-6-6-6-| 
E|-----------------4--4-4-4-4-4-4-4--6--6-6-6-6-6-6-6-----------------| 

Repeat each chord pattern twice, just wrote it one due to space contstraints. 

Verse 

e|-----------------------------------------------------------| 
B|-----------------------------------------------------------| 
G|-5--5-5-5-5-5-5-3/5-5-5--7-5/7-7-7-7-7-7-7-5/7-7-7-5/7-7-7-| 
D|-5--5-5-5-5-5-5-3/5-5-5--7-5/7-7-7-7-7-7-7-5/7-7-7-5/7-7-7-| x2 
A|-3--3-3-3-3-3-3-----3-3----3/5-5-5-5-5-5-5-3/5-5-5-3/5-5-5-| 
E|-----------------------------------------------------------| 
      * * * * * *     * *        * * * * * *     * *     * * 

Pre-Chorus 

e|------------------------------------------------| 
B|------------------------------------------------| 
G|-5--55--5-55-5--55--5-55-7--77--7-77-7--77-7-77-| 
D|-5--55--5-55-5--55--5-55-7--77--7-77-7--77-7-77-| x1 
A|-3--33--3-33-3--33--3-33-5--55--5-55-5--55-5-55-| 
E|------------------------------------------------| 



e|--------------------------------------------------------------------| 
B|--------------------------------------------------------------------| 
G|8--8-8-8-8-8-8-8-------------------------------------8--8-8-8-8-8-8-| 
D|8--8-8-8-8-8-8-8-6--6-6-6-6-6-6-6--8--8-8-8-8-8-8-8--8--8-8-8-8-8-8-| x2 
A|6--6-6-6-6-6-6-6-6--6-6-6-6-6-6-6--8--8-8-8-8-8-8-8--6--6-6-6-6-6-6-| 
E|-----------------4--4-4-4-4-4-4-4--6--6-6-6-6-6-6-6-----------------| 

bridge 

e|----------------------------------------------------------------------------------------------------------| 
B|----------------------------------------------------------------------------------------------------------| 
G|-5--5-5-5-5-5-5--5-5-5-5-5-5-8--8-8-8-8-8-8--8-8-8-8-8-8--------------------------------------------------| 
D|-5--5-5-5-5-5-5--5-5-5-5-5-5-8--8-8-8-8-8-8--8-8-8-8-8-8-6--6-6-6-6-6-6-8--8-8-8-8-8----------------------| 
A|-3--3-3-3-3-3-3--3-3-3-3-3-3-6--6-6-6-6-6-6--6-6-6-6-6-6-6--6-6-6-6-6-6-8--8-8-8-8-8-6--3-----3---6--3----| 
E|---------------------------------------------------------4--4-4-4-4-4-4-6--6-6-6-6-6-------6----6-------6-| 

e|----------------------------------------------------------------------------------------| 
B|----------------------------------------------------------------------------------------| 
G|----5--5-5-5-5-5-5--5-5-5-5-5-5-8--8-8-8-8-8-8--8-8-8-8-8-8-----------------------------| 
D|----5--5-5-5-5-5-5--5-5-5-5-5-5-8--8-8-8-8-8-8--8-8-8-8-8-8-6--6-6-6-6-6-6-8--8-8-8-8-8-| 
A|----3--3-3-3-3-3-3--3-3-3-3-3-3-6--6-6-6-6-6-6--6-6-6-6-6-6-6--6-6-6-6-6-6-8--8-8-8-8-8-| 
E|------------------------------------------------------------4--4-4-4-4-4-4-6--6-6-6-6-6-| 

Solo 

e|--7---7-9-7-------7-10---7---------------7-9-7-----------7-9-7-----------7-| 
B|7---9-------9-7-9------9---9-7-------7-9-------9-7---7-9-------9-7---7-9---| 
G|-------------------------------9-7-9---------------9---------------9-------| 
D|---------------------------------------------------------------------------| 
A|---------------------------------------------------------------------------| 
E|---------------------------------------------------------------------------| 

e|9-7-----------7-9-7--------------------------------b10-10-10-10-br10-10-8--| 
B|----9-7---7-9-------9-7---7-b10-10-10-10-br10-10-8-------------------------| 
G|--------9---------------9--------------------------------------------------| 
D|---------------------------------------------------------------------------| 
A|---------------------------------------------------------------------------| 
E|---------------------------------------------------------------------------| 

verse 

e|---------------------------------------------------------------------| 
B|---------------------------------------------------------------------| 
G|-8--8-8-8-8-8-8-8-------------------------------------8--8-8-8-8-8-8-| 
D|-8--8-8-8-8-8-8-8-6--6-6-6-6-6-6-6--8--8-8-8-8-8-8-8--8--8-8-8-8-8-8-| x4 
A|-6--6-6-6-6-6-6-6-6--6-6-6-6-6-6-6--8--8-8-8-8-8-8-8--6--6-6-6-6-6-6-| 
E|------------------4--4-4-4-4-4-4-4--6--6-6-6-6-6-6-6-----------------| 


************************************ 

| b   Bend 
| br  Bend release 

************************************ 
	  

Search Paypal
auto scroll beats size up size down change color hide chords drawings
tab show chords e-chords YouTube Clip e-chords hide all tabs e-chords go to top tab

share with facebook