The Raveonettes

silent night

The Raveonettes

tabs Expert expert

save to print version add songbook text version e-mail correct tuner
chordsukulelecavacokeyboardtabbassdrumsharmonicaflute Guitar Pro
close

there isn't a video lesson for this song

chords

silent night

	  		KEY OF A 
 
note: This is one of many ways you can play this. I have 
      simplified it, so that any beginner can play.  
 
 
    (A)                                      (E)        (A) 
    
E---0----2--------------0----2--------------7--7--4-----5---5------------ 
B---5--------5----2-----5-------5---2-------------------------5---------- 
G------------------------------------------------------------------------ 
D------------------------------------------------------------------------ 
A---0-------------0-----0-----------0-------------------0-----0---------- 
E-------------------------------------------0---------------------------- 
 
    (D)                    (A)              (D)              (A)           
    
E----2----2--4/5--4--2---------2-------------2---2--5--4/2------2-------- 
B--------------------------5------5---2----------------------5----5---2-- 
G------------------------------------------------------------------------ 
D----0-------0-------------------------------0------0-------------------- 
A--------------------------0---------------------------------0--------0-- 
E------------------------------------------------------------------------ 
 
    (E)                  (A)                         (E)          (A) 
     
E-----7--7--7/10--7---4---5------9--------------------------------------- 
B---------------------------------------10---5---2----5---3-------------- 
G--------------------------------------------------------------4---2----- 
D------------------------------------------------------------------------ 
A-------------------------0-------------0--------------------------0----- 
E-----0-----------0-----------------------------------0------------------ 
 
 
 
 

		  

Full key step upFull key step up
Half key step upHalf key step up
Half key step downHalf key step down
Full key step downFull key step down
auto scroll beats size up size down change color hide chords drawings
tab show chords e-chords YouTube Clip e-chords hide all tabs e-chords go to top tab

share