The Protomen

Light Up The Night

The Protomen

tabs Easy easy

by  FERNSANTANA

save to print version add songbook text version e-mail correct tuner
chordsukulelecavacokeyboardtabbassdrumsharmonicaflute Guitar Pro
close

there isn't a video lesson for this song

chords

Light Up The Night

	  		

E|---------| 
B|--4---5--| 
G|--4---6--|  (x3) 
D|--4---6--| 
A|--2--/4--| 
E|---------| 

  "This city's sleeping like a soldier trapped..." 

E|--------2~-| 
B|--2~----2~-| 
G|--2~----2~-| 
D|--2~----4~-| 
A|--0~----4~-| 
E|--------2~-| 

  "Flip a switch and turn it off, you won't be..." 

E|---------| 
B|--4---5--| 
G|--4---6--|  (x1) 
D|--4---6--| 
A|--2--/4--| 
E|---------| 

E|-------------------------------------------------------------| 
B|--4---5--5--5-5--4h5-5--5--5-5--4h5-5--5--5-5--4h5-5--5--5-5-| 
G|--4---6--6--6-6--4h6-6--6--6-6--4h5-5--5--5-5--4h5-5--5--5-5-|  (x2) 
D|--4---6--6--6-6--4h6-6--6--6-6--4h6-6--6--6-6--4h6-6--6--6-6-| 
A|--2--/4----------4--------------4--------------4-------------| 
E|-------------------------------------------------------------| 

  "I've got this burning like my veins are..." 

E|--------------------------------| 
B|--4---5--5--5-5--4h5-5--5--5-5--| 
G|--4---6--6--6-6--4h6-6--6--6-6--| 
D|--4---6--6--6-6--4h6-6--6--6-6--| 
A|--2--/4----------4--------------| 
E|--------------------------------| 

  "Cut me down and let me run, either way..." 

E|--------2~-| 
B|--2~----2~-| 
G|--2~----2~-| 
D|--2~----4~-| 
A|--0~----4~-| 
E|--------2~-| 

  "It's all gonna burn, the only way that..." 

E|---------| 
B|--4---5--| 
G|--4---6--|  (x1) 
D|--4---6--| 
A|--2--/4--| 
E|---------| 

  "Gotta turn off... Flip a switch..." 

E|---------------| 
B|---------------| 
G|---------------| 
D|---------------| 
A|--4-2-4--------| 
E|--------2-4-5--| 

E|------| 
B|------| 
G|---~--| 
D|--2~--| 
A|--2~--| 
E|--0~--| 

  "Light up the night..." 

E|---------| 
B|--4---5--| 
G|--4---6--|  (x1) 
D|--4---6--| 
A|--2--/4--| 
E|---------| 

  "There is a city that this darkness can't..." 

E|-----------------| 
B|--2--9--2--9--2~-| 
G|--2--9--2--9--2~-| 
D|--2--9--2--9--2~-| 
A|--0--7--0--7--0~-| 
E|-----------------| 

 
		  

See also:

tabs Ira! - Envelheço Na Cidade(Solo - Acustivo Mtv) tabs Deep Purple - No No No tabs Deep Purple - Black Night tabs Deep Purple - Smoke on the water(ver. 2) tabs Deep Purple - Since Youve Been Gone tabs Albert Hammond Jr - In My Room
e-chords

Other versions:

tabs The Protomen - Light Up The Night
auto scroll beats size up size down change color hide chords drawings
tab show chords e-chords YouTube Clip e-chords hide all tabs e-chords go to top tab

share