The Police

home > The Police

Fall Out Tab

The Police

Difficulty: IntermediateIntermediate

tuner correct add songbook print version text version save to e-mail
chordsukulelecavacokeyboardtabbassdrumsharmonicsflute Guitar Pro
chords

Fall Out

Year: 1995 - Album: Live!

  		 
fall out 
 
 
the police 
 
 
TRANSCRIBED BY RUDY GUZMAN 
 
 
[email protected] 
 
intro 
e:------------------------------| 
B:------------------------------| 
G:------------------------------| 
D:-6h7------6h7--------7----7-7-| 
A:-0---0-0--0---0-0-0--0-0--0-0-| 
E:------------------------------| 
 
verse 
e:--------------------------------------------------------------------| 
B:--------------------------------------------------------------------| 
G:-7--7-7-7-7-7-7--3--3-3-3-3-3-3--5--5-5-5-5-5-5--12--12-12-12-12-12-| 
D:-7--7-7-7-7-7-7--3--3-3-3-3-3-3--5--5-5-5-5-5-5--12--12-12-12-12-12-| 
A:-5--5-5-5-5-5-5--1--1-1-1-1-1-1--3--3-3-3-3-3-3--10--10-10-10-10-10-| 
E:--------------------------------------------------------------------| 
 
fall out! 
e:--------------------------------------------------------------------| 
B:--------------------------------------------------------------------| 
G:-7---------------3--3-3-3-3-3-3--5--5-5-5-5-5-5--12--12-12-12-12-12-| 
D:-7---------------3--3-3-3-3-3-3--5--5-5-5-5-5-5--12--12-12-12-12-12-| 
A:-5---------------1--1-1-1-1-1-1--3--3-3-3-3-3-3--10--10-10-10-10-10-| 
E:--------------------------------------------------------------------| 
 
solo 
e:--------------------------------------4b--------------------10-10---------10--------10-| 
B:---6bf--6bp5---5--------------------3-----8p6-6--9b-----------------------10--------10-| 
G:-7-----------7---7-5------------3-5-------------------12-12b--------12-12----12-12b----| 
D:---------------------3-5--3-4-5--------------------------------------------------------| 
A:---------------------------------------------------------------------------------------| 
E:---------------------------------------------------------------------------------------| 
 
:--------10--------------------------------------------------------------------------------| 
:--------10-------------------------------12---------------------10/15-15-15-15-15-15-15-15| 
:-12-12b----12b-12--12bp10----10----------12--------10-12-10-12--10/14-14-14-14-14-14-14-14| 
:--------------------------12----12p10--------10-12----------------------------------------| 
:--------------------------------------12--------------------------------------------------| 
:------------------------------------------------------------------------------------------| 
 
 
e:----------------------------------------------------------------------------------------| 
B:-15-15--17-15-17-15--13--10----10----12--10--10-10-10-10-10-10-10-10--12-12-12-12-12-12-| 
G:-14-14--16-14-16-14--12--10----10----12--10--10-10-10-10-10-10-10-10--12-12-12-12-12-12-| 
D:----------------------------12----12----------------------------------------------------| 
A:----------------------------------------------------------------------------------------| 
E:----------------------------------------------------------------------------------------| 
 
e:--------------------------| 
B:-12-12-12--10----10-10-10-| 
G:-12-12-12--10----10-10-10-| 
D:--------------12----------| 
A:--------------------------| 
E:--------------------------| 
 
oh..... 
e:------------------------------| 
B:------------------------------| 
G:------------------------------| 
D:-6h7------6h7--------7----7-7-| 
A:-0---0-0--0---0-0-0--0-0--0-0-| 
E:------------------------------| 
 
verse 
e:--------------------------------------------------------------------| 
B:--------------------------------------------------------------------| 
G:-7--7-7-7-7-7-7--3--3-3-3-3-3-3--5--5-5-5-5-5-5--12--12-12-12-12-12-| 
D:-7--7-7-7-7-7-7--3--3-3-3-3-3-3--5--5-5-5-5-5-5--12--12-12-12-12-12-| 
A:-5--5-5-5-5-5-5--1--1-1-1-1-1-1--3--3-3-3-3-3-3--10--10-10-10-10-10-| 
E:--------------------------------------------------------------------| 
 
fall out! 
e:--------------------------------------------------------------------| 
B:--------------------------------------------------------------------| 
G:-7---------------3--3-3-3-3-3-3--5--5-5-5-5-5-5--12--12-12-12-12-12-| 
D:-7---------------3--3-3-3-3-3-3--5--5-5-5-5-5-5--12--12-12-12-12-12-| 
A:-5---------------1--1-1-1-1-1-1--3--3-3-3-3-3-3--10--10-10-10-10-10-| 
E:--------------------------------------------------------------------| 
 
e:------------------------------| 
B:------------------------------| 
G:------------------------------| 
D:-6h7------6h7--------7----7-7-| 
A:-0---0-0--0---0-0-0--0-0--0-0-| 
E:------------------------------| 
 
:--------------------------------------------------------| 
:--------------------------------------------------------| 
:--------------------------------------2-2-2-2-2-2-2-2-2-| 
:-7-7-7-7--7-7-7-7--7-7-7-7--7-7-7-7---2-2-2-2-2-2-2-2-2-| 
:-0-0-0-0--0-0-0-0--0-0-0-0--0-0-0-0---0-0-0-0-0-0-0-0-0-| 
:--------------------------------------------------------| 
 

	  

Search Paypal
auto scroll beats size up size down change color hide chords drawings
tab show chords e-chords YouTube Clip e-chords hide all tabs e-chords go to top tab